Oops, an error
Loading. Please wait.

Dear Maria Count Me In Bass Tab

version 1
version 1

Whole song

Interactive

79,289 views 66 this week
7 commentsread comments
1 2 3 4 5
x 22
add to favorites
launch autoscroll
font size
0
reset
guitar tuner
Autoscroll
slow
fast
+/-
esc
set tempo
stop
Help us to improve Ultimate-Guitar.com Take our survey!
×
Author
Difficulty
Tuning
intermediate
D A D G B E
Dear Maria, Count Me In

Bassist:Zach Merrick
Tuning: Drop D

Bass enters at (0:12)


[Intro]
G|---------------------------------------------------------------------|
D|-----------------------------------------------------------------9--7|
A|------------------------------------------------------------------9--|
D|-5-5-5-5-5-5-5-5-5-5-5-5-5-5-5-5-7-7-7-7-7-7-7-7-7-7-7-7-7-7-7-7-----|

G|----------------------------------------------------------------|
D|----------------------------------------------------------------|
A|----------------------------------------------------------------|
D|0-0-0-0-0-0-0-0-0-0-0-0-0-0-0-0-4-4-4-4-4-4-4-4-4-4-4-4-4-4-4-4-|

[Verse 1]
G|---------------------------------------------------------------------|
D|---------------------------------------------------------------------|
A|-5555555555555555----------------------------------------------------|
D|------------------5555555555555555-2222222222222222-7777777777777777-|x2

G|-------------------|
D|-------------------|
A|-------------------|
D|-77777777-88888888-|

[Chorus]
G|-------------------------------------------------------------------9-7-----|
D|-------------------------------------------------------------9-7-------9-7-|
A|-----------------------------------------------------------------7---------|
D|-9999999999999999-5555555555555555-0000000000000000-77777777---------------|


G|---------------------------------------------------------------------|
D|---------------------------------------------------------------------|
A|---------------------------------------------------------------------|
D|-9999999999999999-5555555555555555-0000000000000000-7777777777777777-|

Intro x1

[Verse 2]
G|---------------------------------------------------------------------|
D|---------------------------------------------------------------------|
A|-5555555555555555----------------------------------------------------|
D|------------------5555555555555555-2222222222222222-7777777777777777-|


G|---------------------------------------------------------------------|
D|---------------------------------------------------------------------|
A|-5-5-----------------------------------------------------------------|
D|-----5555555555555555-2~-77777777-88888888---------------------------|

Chorus x1

No Bass Until (2:19)
[Bridge]
G|----------------------------------------------------|
D|----------------------------------------------------|
A|----------------------------------------------------|
D|-7-0~-77-44-55--55-77-00--77-44-5555555555555555-99-|

Last Chorus (2:32)

G|----------------------------------------------------|
D|----------------------------------------------------|
A|----------------------------------------------------|
D|-5555555555555555-0000000000000000-7777777777777777-|


G|------------------------------------------------------------------------|
D|------------------------------------------------------------------------|
A|---------------------------------------------------------------------5~-|
D|-9999999999999999-5555555555555555-0000000000000000-7777777777777777----|



************************************

| ~  Vibrato

************************************
Suggest correction
comments
print report bad tab
7 comments total. Showing first comments.
0 reply
Hansonator3 208 Oct 10, 2007 07:05 PM

dude ty sooo much 4 tabbing this ive been waiting 4 some1 2 do this 4 so long haha....only suggestion is on the fill i here something more lik:

A 0--9h7--7----0--
E ------9---9-7---

0 reply
mwebassmaster09 93 Oct 13, 2007 10:20 PM

haha ill be tabbing alot more atl dont you worry...if u listen to the bass riff in the chorus I think i have it right but you may too...idk

0 reply
mathies621 10 Jun 18, 2008 04:13 PM

its good but idk how you can call it intermediate

guest
You may want to rate the tab now too:
select rating
Wanna post a correction for this tab? Suggest correction