Oops, an error
Loading. Please wait.

Dear Maria Count Me In Bass Tab

version 1
version 1

Whole song

Interactive

76,733 views 51 this week
7 commentsread comments
1 2 3 4 5
excellent!
x 21
add to favorites
launch autoscroll
font size
0
reset
guitar tuner
Tab Pro tools
  • play this tab
  • loop segment
  • change instrument
  • show fretboard
  • metronome
×
Best way to learn
"Dear Maria Count Me In"
Autoscroll
slow
fast
+/-
esc
set tempo
stop
Contributor
Difficulty
Tuning
intermediate
D A D G B E
Dear Maria, Count Me In

Bassist:Zach Merrick
Tuning: Drop D

Bass enters at (0:12)
Intro
G|-------------------------------------------------------------------------|
D|-----------------------------------9--7----------------------------------|
A|------------------------------------9------------------------------------|
D|-5555555555555555-7777777777777777-----0000000000000000-4444444444444444-|

Verse 1
G|---------------------------------------------------------------------|
D|---------------------------------------------------------------------|
A|-5555555555555555----------------------------------------------------|
D|------------------5555555555555555-2222222222222222-7777777777777777-|x2

G|-------------------|
D|-------------------|
A|-------------------|
D|-77777777-88888888-|

Chorus
G|-------------------------------------------------------------------9-7-----|
D|-------------------------------------------------------------9-7-------9-7-|
A|-----------------------------------------------------------------7---------|
D|-9999999999999999-5555555555555555-0000000000000000-77777777---------------|


G|---------------------------------------------------------------------|
D|---------------------------------------------------------------------|
A|---------------------------------------------------------------------|
D|-9999999999999999-5555555555555555-0000000000000000-7777777777777777-|

Intro x1

Verse 2
G|---------------------------------------------------------------------|
D|---------------------------------------------------------------------|
A|-5555555555555555----------------------------------------------------|
D|------------------5555555555555555-2222222222222222-7777777777777777-|


G|---------------------------------------------------------------------|
D|---------------------------------------------------------------------|
A|-5-5-----------------------------------------------------------------|
D|-----5555555555555555-2~-77777777-88888888---------------------------|

Chorus x1

No Bass Until (2:19)
Bridge
G|----------------------------------------------------|
D|----------------------------------------------------|
A|----------------------------------------------------|
D|-7-0~-77-44-55--55-77-00--77-44-5555555555555555-99-|

Last Chorus (2:32)

G|----------------------------------------------------|
D|----------------------------------------------------|
A|----------------------------------------------------|
D|-5555555555555555-0000000000000000-7777777777777777-|


G|------------------------------------------------------------------------|
D|------------------------------------------------------------------------|
A|---------------------------------------------------------------------5~-|
D|-9999999999999999-5555555555555555-0000000000000000-7777777777777777----|



comments
print report bad tab
7 comments total. Showing first comments.
0 reply
Hansonator3 wrote on October 10 2007, 07:05 pm

dude ty sooo much 4 tabbing this ive been waiting 4 some1 2 do this 4 so long haha....only suggestion is on the fill i here something more lik:

A 0--9h7--7----0--
E ------9---9-7---

0 reply
mwebassmaster09 wrote on October 13 2007, 10:20 pm

haha ill be tabbing alot more atl dont you worry...if u listen to the bass riff in the chorus I think i have it right but you may too...idk

0 reply
mathies621 wrote on June 18 2008, 04:13 pm

its good but idk how you can call it intermediate

I want to post or [tab]
guest
You may want to rate the tab now too:
select rating
Please do not post tabs as comments. Select "correction" instead!