Oops, an error
Loading. Please wait.

Dear Maria Count Me In Tab

version 1
version 1
303,751 views 207 this week
41 commentsread comments
1 2 3 4 5
accurate
x 40
add to favorites
launch autoscroll
font size
0
reset
how to read this tab
guitar tuner
Autoscroll
slow
fast
+/-
esc
set tempo
stop
Help us to improve Ultimate-Guitar.com Take our survey!
×
Author
NOTE: listen to song for strumming

Guitar 1-Rythm
Guitar 2-Lead


[Intro Pt.1]

Guitar 1

e|------------------------------------------------------------------------|
b|------------------------------------------------------------------------|
g|------------------------------------------------------------------------|
d|-9999999999999999--5555555555555555--0000000000000000--7777777777777777-|
a|-9999999999999999--5555555555555555--0000000000000000--7777777777777777-|
D|-9999999999999999--5555555555555555--0000000000000000--7777777777777777-|
    ****************  ****************  ****************  ****************
        PM                 PM                 PM               PM


[Intro Pt.2]

Guitar 1

e|------------------------------------------------------------------------|
b|------------------------------------------------------------------------|
g|------------------------------------------------------------------------|
d|-9999999999999999--5555555555555555--0000000000000000--7777777777777777-|
a|-9999999999999999--5555555555555555--0000000000000000--7777777777777777-|
D|-9999999999999999--5555555555555555--0000000000000000--7777777777777777-|

Guitar 2
                      x3
e|-----|--------------|-------|
b|-----|--------------|-------|
g|-6/7-|-11-12-11-9-7-|--9-14-|
d|-x/x-|-x--x--x--x-x-|--x-x--|
a|-4/5-|-9--10-9--7-5-|--7-12-|
D|-----|--------------|-------|


[Verse]

Guitar 1
                                                                       x2
e|----------------------------------------------------------------------|
b|----------------------------------------------------------------------|
g|----------------------------------------------------------------------|
d|-0000000000000000-5555555555555555-2222222222222222-7777777777777777--|
a|-0000000000000000-5555555555555555-2222222222222222-7777777777777777--|
D|-0000000000000000-5555555555555555-2222222222222222-7777777777777777--|

On the second time through just before the chorus play the last chord as

e|--------------------|
b|--------------------|
g|--------------------|
d|-77777777-88888888--|
a|-77777777-88888888--|
D|-77777777-88888888--|

Guitar 2 (comes in after "go on and play the leader")

e|---|
d|---|
g|-7-|
d|-x-|
a|-5-|
D|---|


[Chorus]
                                                                          
Guitar 1 
                                                                          x2
e|------------------------------------------------------------------------|
b|------------------------------------------------------------------------|
g|------------------------------------------------------------------------|
d|-9999999999999999--5555555555555555--0000000000000000--7777777777777777-|
a|-9999999999999999--5555555555555555--0000000000000000--7777777777777777-|
D|-9999999999999999--5555555555555555--0000000000000000--7777777777777777-|

Guitar 2

listen for the strumming (it's kinda hard to hear but i think this is what jack is playing)

e|-----------------------------------------------------|
b|-----------------------------------------------------|
g|-1414141414/99999/77777/1414141414/11111/99999/77777-|
d|-xxxxxxxxxx/xxxxx/xxxxx/xxxxxxxxxx/xxxxx/xxxxx/xxxxx-|
a|-1212121212/77777/55555/1212121212/99999/77777/55555-|
D|-----------------------------------------------------|

this is played on the second time through

                   x3
e|-----------------|
b|-----------------|
g|-14-14--14/12/11-|
d|-x--x---x-/x-/x--|
a|-12-12--12/10/9--|
D|-----------------|


[Intro]

[Verse]

[Chorus]


[Bridge]

Guitar 1

                             x5
e|----------------------------|
b|----------------------------|
g|----------------------------|
d|-0-0--7-7-4-4-5-5--5-5-7-7--|
a|-0-0--7-7-4-4-5-5--5-5-7-7--|
D|-0-0--7-7-4-4-5-5--5-5-7-7--|

Guitar 2 (comes in on the 4th time through)
  
take a breath
e|---|
b|---|
g|-7-|
d|-x-|
a|-5-|
D|---|

"always wanting......... more"
e|------|------------------|
b|------|------------------|
g|-11---|---------------14-|
d|-x----|---------------x--|
a|-9----|---------------12-|
D|------|------------------|

[Chorus] x2



************************************

| x  Dead note
| /  Slide up 

************************************
Suggest correction
What's this?
You can suggest a correction to this tab. Community and Mods will review your correction and vote to approve or reject it.
comments
print report bad tab
41 comments total. Showing first comments.
+3 reply
JRob124 14 wrote on August 2 2007, 03:21 pm

nice man...i was about to post a tab..but it looks just like this...nice job man. ATL rocks!

0 reply
II HaZzA II 2,128 wrote on August 12 2007, 06:54 pm

theres like one guitar through the whole tab... theres 2 guitarists in the band.. the one bit you have of guitar 2 is completly wrong..he plays octaves not single notes.

0 reply
theminority23 12 wrote on August 25 2007, 10:16 am

------]-----------------------------------
------]----------------------------------
6/-7--]----11-12-9-7-------9---14--------------------
x/-x--]----x--x--x-x--x3---x---x-------------------
4/-5--]----9--10-7-5-------7---12--------------------
------]----------------------------------

Yea those are the octaves in order not the rythm

guest
You may want to rate the tab now too:
select rating
Please do not post tabs as comments. Select "correction" instead!