Oops, an error
Loading. Please wait.

Dear Maria Count Me In Bass Tab

version 2
version 2

Whole song

Interactive

15,949 views 12 this week
no commentswrite comment
1 2 3 4 5
excellent!
x 3
add to favorites
launch autoscroll
font size
0
reset
guitar tuner
Autoscroll
slow
fast
+/-
esc
set tempo
stop
Help us to improve Ultimate-Guitar.com Take our survey!
×
Difficulty
novice
Dear Maria, Count Me In Bass Tab:


Intro/Outro:


G|--------------------------------------------------------------------|
D|--------------------------------------------------------------------|
A|-----------------5(x16)---------------------------------------------|
E|-7(x16)--3(x16)----------5(x8)--------------------------------------| x2



Verse:

G|--------------------------------------------------------------------|
D|--------------------------------------------------------------------|
A|-5(x16)-------------------------------------------------------------|
E|---------3(x16)--0(x16)--5(x16)-------------------------------------|


G|--------------------------------------------------------------------|
D|--------------------------------------------------------------------|
A|-5(x8)--------------------------------------------------------------|
E|---------3(x8)--0(x8)--5(x8)----------------------------------------|



Chorus:


G|--------------------------------------------------------------------|
D|--------------------------------------------------------------------|
A|-----------------5(x16)---------------------------------------------|
E|-7(x16)--3(x16)----------5(x16)-------------------------------------|


G|--------------------------------------------------------------------|
D|--------------------------------------------------------------------|
A|---------------------------5--5--5555-------------------------------|
E|-7--7--7777---3--3--3333----------------5--5--5555------------------|



Interlude:


G|--------------------------------------------------------------------|
D|--------------------------------------------------------------------|
A|-----------------5(x16)---------------------------------------------|
E|-7(x16)--3(x16)----------5(x16)-------------------------------------|



Bridge:


G|--------------------------------------------------------------------|
D|--------------------------------------------------------------------|
A|-55--55-------------------55----------------------------------------|
E|--------22-33-------33-55-------------------------------------------| x4


G|--------------------------------------------------------------------|
D|--------------------------------------------------------------------|
A|-55--55-------------------------------------------------------------|
E|--------22-3(x16)---------------------------------------------------|



Song Layout:

Intro
Verse
Chorus
Interlude
Verse
Chorus
Bridge
Verse (starting from 3(x16))
Outro
Suggest correction
Give kudos to tab author, rate the tab!
1 2 3 4 5
comments
print report bad tab
guest
You may want to rate the tab now too:
select rating
Wanna post a correction for this tab? Suggest correction