Oops, an error
Loading. Please wait.

Dear Maria Count Me In Tab

version 2
version 2
70,905 views 21 this week
4 commentsread comments
1 2 3 4 5
x 17
add to favorites
launch autoscroll
font size
0
reset
how to read this tab
guitar tuner
Autoscroll
slow
fast
+/-
esc
set tempo
stop
Help us to improve Ultimate-Guitar.com Take our survey!
×
Author
Dear Maria – All Time Low
-------------------------------------------------------------------------------
Tabbed by: Lucas
Email: itouchny@yahoo.com

Tuning: Drop D. A lot of the strumming isn’t approximate at all, I’d hope you
would be able to figure it out.

ATTENTION ALL RAPPERS & PRODUCERS - I MAKE BEATS WITH $20.00 LEASES CHECK ME OUT AT
HTTP://WWW.BROWNSVILLEPRODUCTIONS.COM

Key D: D E F# G A B C# D

Intro

Rhythm: I got your picture...
  Pm...........
e|---------------------------------------------------------------------------|
B|---------------------------------------------------------------------------|
G|---------------------------------------------------------------------------|
D|9---5---0---7--------------------------------------------------------------|
A|9---5---0---7--------------------------------------------------------------|
D 9---5---0---7--------------------------------------------------------------|

Interlude

Lead:

e|---------------------------------------------------------------------------|
B|---------------------------------------------------------------------------|
G|6/7-11-12-11-9-7---11-12-11-12-14---11-12--11-9-7-9-14~--------------------|
D|---------------------------------------------------------------------------|
A|4/5-9--10--9-7-5---9--10--9-10-12---9--10--9--7-5-7-12~--------------------|
D|---------------------------------------------------------------------------|

Rhythm:

e|---------------------------------------------------------------------------|
B|---------------------------------------------------------------------------|
G|---------------------------------------------------------------------------|
D|5---7---0---4--------------------------------------------------------------|
A|5---7---0---4--------------------------------------------------------------|
D|5---7---0---4--------------------------------------------------------------|

Verse

Rhythm:2X
   Pm......    Pm......  Pm......   Pm......   Pm......    Pm...... Pm......  Pm......
e|------------------------------------------------------------------------------------|
B|------------------------------------------------------------------------------------|
G|------------------------------------------------------------------------------------|
D|0000000000--555555555--222222222--777777777--000000000--55555555--22222222--77778888|
A|0000000000--555555555--222222222--777777777--000000000--55555555--22222222--77778888|
D|0000000000--555555555--222222222--777777777--000000000--55555555--22222222--77778888|

Lead:

e|---------------------------------------------------------------------------|
B|---------------------------------------------------------------------------|
G|----7-7-7-7-7--7777-7-7-7-7-7--7777--6-7-9~--------------------------------|
D|---------------------------------------------------------------------------|
A|12\-5-5-5-5-5--5555-5-5-5-5-5--5555----------------------------------------|
D|12\------------------------------------------------------------------------|

Chorus

Rhythm:2X

e|---------------------------------------------------------------------------|
B|---------------------------------------------------------------------------|
G|---------------------------------------------------------------------------|
D|9---5---0---7--------------------------------------------------------------|
A|9---5---0---7--------------------------------------------------------------|
D|9---5---0---7--------------------------------------------------------------|

Lead:2X

e|---------------------------------------------------------------------------|
B|---------------------------------------------------------------------------|
G|12-12-11-11-14-14-12-12--7-7-9-9-6-6-6-6-----------------------------------|
D|-12-12-12-12-12-12-12-12--7-7-7-7-7-7-7-7----------------------------------|
A|---------------------------------------------------------------------------|
D|---------------------------------------------------------------------------|

Interlude

Lead:

e|---------------------------------------------------------------------------|
B|---------------------------------------------------------------------------|
G|-11-12-11-9-7---11-12-11-9-14---11-12--11-9-7-9-14~------------------------|
D|---------------------------------------------------------------------------|
A|-9--10--9-7-5---9--10--9-7-12---9--10--9--7-5-7-12~------------------------|
D|---------------------------------------------------------------------------|

Rhythm:

e|---------------------------------------------------------------------------|
B|---------------------------------------------------------------------------|
G|---------------------------------------------------------------------------|
D|5---7---0---4--------------------------------------------------------------|
A|5---7---0---4--------------------------------------------------------------|
D|5---7---0---4--------------------------------------------------------------|

Verse 2

Rhythm:
  Pm....    Pm.....   Pm.....   Pm.....                    Pm...
e|---------------------------------------------------------------------------|
B|---------------------------------------------------------------------------|
G|---------------------------------------------------------------------------|
D|0000000---5555555---2222222---7777777---0-0---5555555-2~--7777-8888--------|
A|0000000---5555555---2222222---7777777---0-0---5555555-2~--7777-8888--------|
D|0000000---5555555---2222222---7777777---0-0---5555555-2~--7777-8888--------|

Lead:

e|-----------------------------------------------------------------------------|
B|-----------------------------------------------------------------------------|
G|----------------------------------------7-7---12121212-9~--------------------|
D|-----------------------------------------------------------------------------|
A|----------------------------------------5-5---10101010-7~--------------------|
D|-----------------------------------------------------------------------------|

Chorus

Rhythm:2X

e|---------------------------------------------------------------------------|
B|---------------------------------------------------------------------------|
G|---------------------------------------------------------------------------|
D|9---5---0---7--------------------------------------------------------------|
A|9---5---0---7--------------------------------------------------------------|
D|9---5---0---7--------------------------------------------------------------|

Lead:2X

e|---------------------------------------------------------------------------|
B|---------------------------------------------------------------------------|
G|12-12-11-11-14-14-12-12--7-7-9-9-6-6-6-6-----------------------------------|
D|-12-12-12-12-12-12-12-12--7-7-7-7-7-7-7-7----------------------------------|
A|---------------------------------------------------------------------------|
D|---------------------------------------------------------------------------|

Bridge

Rhythm:

e|-------------------------------------------------------------------|
B|-------------------------------------------------------------------|
G|-------------------------------------------------------------------|
D|000-777-444-555-555-777-000----777-444-5555555-7777777-9-9\--------|
A|000-777-444-555-555-777-000----777-444-5555555-7777777-9-9\--------|
D|000-777-444-555-555-777-000----777-444-5555555-7777777-9-9\--------|

Lead:

e|---------------------------------------------------------------------|
B|---------------------------------------------------------------------|
G|7--11—-14\-----------------------------------------------------------|
D|---------------------------------------------------------------------|
A|5--9---12\-----------------------------------------------------------|
D|---------------------------------------------------------------------|

Outro

Rhythm:

e|----------------------------------------------------------------------------|
B|----------------------------------------------------------------------------|
G|----------------------------------------------------------------------------|
D|5---0---7---9---5---0---7~--------------------------------------------------|
A|5---0---7---9---5---0---7~--------------------------------------------------|
D|5---0---7---9---5---0---7~--------------------------------------------------|

Lead:

e|---------------------------------------------------------------------------|
B|---------------------------------------------------------------------------|
G|---14-14-12-12---7-7-9-9-6-6-6-6-7/19-19-18-14-12~-11~-9~-6-7~-------------|
D|----12-12-12-12---7-7-7-7-7-7-7-7------------------------------------------|
A|---------------------------------------------------------------------------|
D|---------------------------------------------------------------------------|

| /  slide up
| \  slide down
| h  hammer-on
| p  pull-off
| ~  vibrato
| +  harmonic
| x  Mute note
Suggest correction
comments
print report bad tab
4 comments total. Showing first comments.
0 reply
gaurd336 10 Jul 21, 2009 10:31 AM

what?

0 reply
Ample 157 Jul 27, 2009 08:42 PM

What?

0 reply
Craig-Bass1995 177 Feb 15, 2010 03:55 PM

What?

guest
You may want to rate the tab now too:
select rating
Wanna post a correction for this tab? Suggest correction