Oops, an error
Loading. Please wait.

Dear Maria Count Me In Bass Tab

version 3
version 3

Whole song

Interactive

2,385 views 6 this week
2 commentsread comments
1 2 3 4 5
1 last vote to show rating
add to favorites
launch autoscroll
font size
0
reset
guitar tuner
Autoscroll
slow
fast
+/-
esc
set tempo
stop
Help us to improve Ultimate-Guitar.com Take our survey!
×
Author
tabbed by: eugene go	
email: eugenego2000@yahoo.com

intro:
G|---------------------------------------------------------------------|    
D|---------------------------------------------------------------------|    
A|-----------------------------------5555555555555555------------------|
E|-3333333333333333-5555555555555555------------------2222222222222222-|

verse:
G|---------------------------------------------------------------------|    
D|---------------------------------------------------------------------|    
A|-5555555555555555----------------------------------------------------| 
E|------------------3333333333333333-0000000000000000-5555555555555555-|   

G|---------------------------------------------------------------------|    
D|---------------------------------------------------------------------|    
A|-5-55-5-5-5-5-555----------------------------------------------------| 
E|------------------3-33-3-3-3-3-333-0-00-0-0-0-0-000-5555555555555555-|   

chorus:
G|---------------------------------------------------------------------|    
D|---------------------------------------------------------------------|    
A|-2222222222222222------------------5555555555555555------------------| x2
E|------------------3333333333333333------------------5555555555555555-| 

intro 2:
G|---------------------------------------------------------------------|    
D|---------------------------------------------------------------------|    
A|-----------------------------------5555555555555555------------------|
E|-3333333333333333-5555555555555555------------------2222222222222222-|

verse 2:
G|---------------------------------------------------------------------|    
D|---------------------------------------------------------------------|    
A|-5555555555555555----------------------------------------------------| 
E|------------------3333333333333333-0000000000000000-5555555555555555-|   

G|---------------------------------------------------------------------|    
D|---------------------------------------------------------------------|    
A|-5-5~----------------------------------------------------------------| 
E|------------------3333333333333333-0~---------------5555555555555555-|   


chorus:
G|---------------------------------------------------------------------|    
D|---------------------------------------------------------------------|    
A|-2222222222222222------------------5555555555555555------------------| x2
E|------------------3333333333333333------------------5555555555555555-| 

bridge:
no bass

G|----------------------------------------------|    
D|----------------------------------------------|    
A|-55----------------55-------------------------| 
E|----55-22-33-33-55----55-22-33333333-55555555-| 

chorus:
G|---------------------------------------------------------------------|    
D|---------------------------------------------------------------------|    
A|-2222222222222222------------------5555555555555555------------------| x2
E|------------------3333333333333333------------------5555555555555555-| 

outro:

G|----|    
D|----|    
A|-2--| 
E|----|

Suggest correction
Give kudos to tab author, rate the tab!
1 2 3 4 5
comments
print report bad tab
2 comments total.
0 reply
Ample 157 Jun 12, 2009 12:36 PM

Who said voted for this to pass, its way wrong?

0 reply
Aurigo 1,082 Jun 12, 2009 02:39 PM

I agree man, for starters this song is in drop d. and the d notes on the a string 5th fret just sound way out of place when you play.

guest
You may want to rate the tab now too:
select rating
Wanna post a correction for this tab? Suggest correction