Oops, an error
Loading. Please wait.

Dear Maria Count Me In Tab

version 4
version 4
8,083 views 3 this week
no commentswrite comment
1 2 3 4 5
please rate
add to favorites
launch autoscroll
font size
0
reset
how to read this tab
guitar tuner
Autoscroll
slow
fast
+/-
esc
set tempo
stop
Help us to improve Ultimate-Guitar.com Take our survey!
×
Author
Song: DEAR MARIA COUNT ME IN
Artist: ALL TIME LOW
Album: SO WRONG, IT'S RIGHT

INTRO: 
(palm mute, at the end slightly remove palm mute)
e|---------|
B|---------|
G|-----7---|
D|-9-5-7-7-|
A|-9-5-5-7-|
E|-7-3---5-|

e|---------------------------------------------------|
B|---------------------------------------------------|
G|-11-12-11-9-7---11-12-11-12-14---11-12-11-5-7-9-14-|
D|-x--x--x--x-x---x--x--x--x--x----x--x--x--x-x-x-x--|
A|-9--10-9--7-5---9--10-9--10-12---9--10-9--7-5-7-12-|
E|---------------------------------------------------|


VERSE:
 (strumming pattern/palm muting varies)
e|---------|
B|---------|
G|---------|    x2
D|-7-5-2-5-| 
A|-7-5-2-5-|
E|-5-3-0-3-|


CHORUS:

Rhythm: 
e|---------|
B|---------|
G|-----7---|
D|-9-5-7-7-|
A|-9-5-5-7-|
E|-7-3---5-|

Lead:
(entire thing twice)
e|---------------------------------------------------|
B|-12----12-----11----11----14----14----12-----12----|
G|----12----12----12----12----12----12-----12-----12-|
D|---------------------------------------------------|
A|---------------------------------------------------|
E|---------------------------------------------------|

e|----------------------------------|
B|-7---7---9---9---6----6---6---6---|
G|---7---7---7---7---7----7---7---7-|
D|----------------------------------|
A|----------------------------------|
E|----------------------------------|

VERSE

CHORUS 

BRIDGE:                    (palm mute)   
e|---------------|           |-----|
B|---------------|           |-----|
G|-------------5-|           |-----| 
D|-5-2-4---4-5-5-|  x5       |-5-7-|
A|-5-2-4---4-5-3-|           |-5-7-|
E|-3-0-2---2-3---|           |-3-5-|


CHORUS 


Tabbed by: Ana
Any questions/comments email me at anaapanics@aim.com 
Suggest correction
Give kudos to tab author, rate the tab!
1 2 3 4 5
comments
print report bad tab
guest
You may want to rate the tab now too:
select rating
Wanna post a correction for this tab? Suggest correction