Oops, an error
Loading. Please wait.

Dear Maria Count Me In Tab

version 5
version 5

Interactive

2,728 views 9 this week
no commentswrite comment
1 2 3 4 5
excellent!
x 3
add to favorites
launch autoscroll
font size
0
reset
how to read this tab
guitar tuner
Tab Pro tools
  • play this tab
  • loop segment
  • change instrument
  • show fretboard
  • metronome
×
Best way to learn
"Dear Maria Count Me In"
Autoscroll
slow
fast
+/-
esc
set tempo
stop
Contributor
All Time Low – Dear Maria Count Me In

Tuning: Drop D (DADGBe)
This is only Alex' part, so for the ones who want to learn Jack part, I recommend: 
http://www.911tabs.com/link/?6684211
GOOD LUCK ! :)

Intro
------

e|---------------------------------------------------------------------------------|------------|
B|---------------------------------------------------------------------------------|------------|
G|---------------------------------------------------------------------------------|--6-6-7-7---|
D|-----------------------------------------------------------------------------77--|--6-6-7-7---|
A|--9999999999999999-5555555555555555-12121212121212121212121212121212-7777777777--|--4-4-5-5---|
D|--9999999999999999-5555555555555555-12121212121212121212121212121212-7777777777--|------------|
PM  ................ ................ ................................ ........


Pre-Verse
----------

e|----------------------------------|------------------------------------|
B|----------------------------------|------------------------------------|
G|--111111111111111-1212-1111-99-77-|-111111111111111-1212-1111-99-1414--|
D|--111111111111111-1212-1111-99-77-|-111111111111111-1212-1111-99-1414--|
A|--9-9-9-9-9-9-9-9-1010--9-9-77-55-|-9-9-9-9-9-9-9-9-1010--9-9-77-1212--|
D|----------------------------------|------------------------------------|

e|----------------------------------|-------------------------------|
B|----------------------------------|-------------------------------|
G|--111111111111111-1212-1111-99-77-|-99999999-141414141414141414~~-|
D|--111111111111111-1212-1111-99-77-|-99999999-141414141414141414~~-|
A|--9-9-9-9-9-9-9-9-1010--9-9-77-55-|-77777777-121212121212121212~~-|
D|----------------------------------|-------------------------------|


Verse
------

e|-------------------------------------------------------------------------|
B|-------------------------------------------------------------------------|
G|--(14)~~~~~~~~~~~~-5~---------------2~---------------7~------------------|
D|--(14)~~~~~~~~~~~~-5~55555555555555-2~22222222222222-7~7777777777777777--|
A|--(12)~~~~~~~~~~~~-5~55555555555555-2~22222222222222-7~7777777777777777--|
D|-------------------------------------------------------------------------|
PM                     ..............   ..............   ..............

e|-----------------------------------------------------------------------|
B|-----------------------------------------------------------------------|
G|--0~---------------5~---------------2~---------------7~----------------|
D|--0~00000000000000-5~55555555555555-2~22222222222222-7~77777788888888--|
A|--0~00000000000000-5~55555555555555-2~22222222222222-7~77777788888888--|
D|-----------------------------------------------------------------------|
 |PM  ..............   ..............   ..............   ..............  |


Chorus
------

e|-----------------------------------------------------------------------|
B|-----------------------------------------------------------------------|
G|------------------------------------7777777777777777-------------------|
D|--9999999999999999-5555555555555555-7777777777777777-7777777777777777--|
A|--9999999999999999-5555555555555555-5555555555555555-7777777777777777--|
D|--9999999999999999-5555555555555555------------------7777777777777777--|    x2


Pre-Verse
----------

e|----------------------------------|------------------------------------|
B|----------------------------------|------------------------------------|
G|--111111111111111-1212-1111-99-77-|-111111111111111-1212-1111-99-1414--|
D|--111111111111111-1212-1111-99-77-|-111111111111111-1212-1111-99-1414--|
A|--9-9-9-9-9-9-9-9-1010--9-9-77-55-|-9-9-9-9-9-9-9-9-1010--9-9-77-1212--|
D|----------------------------------|------------------------------------|

e|----------------------------------|-------------------------------|
B|----------------------------------|-------------------------------|
G|--111111111111111-1212-1111-99-77-|-99999999-141414141414141414~~-|
D|--111111111111111-1212-1111-99-77-|-99999999-141414141414141414~~-|
A|--9-9-9-9-9-9-9-9-1010--9-9-77-55-|-77777777-121212121212121212~~-|
D|----------------------------------|-------------------------------|


Verse
------

e|-----------------------------------------------------------------------|
B|-----------------------------------------------------------------------|
G|--(14)~~~~~~~~~~~~-5~---------------2~---------------7~----------------|
D|----x--------------5~55555555555555-2~22222222222222-7~77777777777777--|
A|--(12)~~~~~~~~~~~~-5~55555555555555-2~22222222222222-7~77777777777777--|
D|-----------------------------------------------------------------------|
PM                     ..............   ..............   ..............

e|-----------------------------------------------------------------------|
B|-----------------------------------------------------------------------|
G|----0x-------------5~--------------------------------------------------|
D|----0x-------------5~55555555555555-2~---------------7~-------8~-------|
A|--0-0x-----------0-5~55555555555555-2~---------------7~-------8~-------|
D|-----------------------------------------------------------------------|
 |PM.              .   ..............                                    |


Chorus
------

e|-----------------------------------------------------------------------|
B|-----------------------------------------------------------------------|
G|------------------------------------7777777777777777-------------------|
D|--9999999999999999-5555555555555555-7777777777777777-7777777777777777--|
A|--9999999999999999-5555555555555555-5555555555555555-7777777777777777--|
D|--9999999999999999-5555555555555555------------------7777777777777777--|    x2


Bridge
-------

e|----------------------------|
B|----------------------------|
G|--x-7~~~~~~~~~~-------------|
D|--x-7~~~~~~~~~~-------------|
A|--x-5~~~~~~~~~~-------------|
D|----------------------------|

e|----------------------------|
B|----------------------------|
G|----------------------------|
D|--------x7--4--5--x5--7--0--|     X4
A|--------x7--4--5--x5--7--0--|
D|--------x7--4--5--x5--7--0--|

e|----------------------------|
B|----------------------------|
G|----------------------------|
D|----7~~~~~~~~~~-------------|
A|--x-5~~~~~~~~~~-------------|
D|----------------------------|



e|----------------------------|----------------------------|
B|----------------------------|----------------------------|
G|----------------------------|----------------------------|
D|---(0)--x7--4--5--x5--7--0--|--x7--4--5------------------|
A|---(0)--x7--4--5--x5--7--0--|--x7--4--55555555577777777--|
D|---(0)--x7--4--5--x5--7--0--|--x7--4--55555555577777777--|


Chorus (Outro)
---------------

e|-----------------------------------------------------------------------|
B|-----------------------------------------------------------------------|
G|------------------------------------7777777777777777-------------------|
D|-x9-9\0------------5555555555555555-7777777777777777-7777777777777777--|
A|-x9-9\0------------5555555555555555-5555555555555555-7777777777777777--|
D|-x9-9\0------------5555555555555555------------------7777777777777777--|


e|-----------------------------------------------------------------------|
B|-----------------------------------------------------------------------|
G|------------------------------------7777777777777777-------------------|
D|--9999999999999999-5555555555555555-7777777777777777-7777777777777775~-|
A|--9999999999999999-5555555555555555-5555555555555555-7777777777777775~-|
D|--9999999999999999-5555555555555555------------------7777777777777775~-|

comments
We did not receive enough feedback on this tab! Please rate:
print report bad tab
1 2 3 4 5
I want to post or [tab]
guest
You may want to rate the tab now too:
select rating
Please do not post tabs as comments. Select "correction" instead!