Oops, an error
Loading. Please wait.

Dear Maria Count Me In Tab

version 6
version 6

Interactive

1,263 views 3 this week
no commentswrite comment
1 2 3 4 5
please rate
add to favorites
launch autoscroll
font size
0
reset
how to read this tab
guitar tuner
Tab Pro tools
  • play this tab
  • loop segment
  • change instrument
  • show fretboard
  • metronome
×
Best way to learn
"Dear Maria Count Me In"
Autoscroll
slow
fast
+/-
esc
set tempo
stop
Contributor
Difficulty
intermediate
Dear Maria, Count Me In - All Time Low (Live from Straight To DVD) Version

Lead Guitarist - Standard Tuning eBGDAE
Rhythm Guitarist - Drop D Tuning eBGDAD

Intro:

Rhythm Guitarist
e|----------|-----|---------------|----------------|----|-6-----------------|
B|----------|-----|---------------|----------------|----|-6-----------------|
G|----------|-----|---------------|----------------|----|-6-----------------|
D|-8-4-11-6-|-----|-8-------------|-4--------------|-11-|-6-----------------|
A|-8-4-11-6-|-----|-8-------------|-4--------------|-11-|-6-----------------|
D|-8-4-11-6-|-----|-8-------------|-4--------------|-11-|-6-----------------|

Lead Guitarist
              (A)       (B)             (C)          (B)        (D)
e|----------|-----|---------------|----------------|----|-------------------|
B|----------|-----|---------------|----------------|----|-------------------|
G|----------|-5/6-|-10-11-10-8-6--|-10-11-10-11-13-|----|--8-13-------------|
D|----------|-x-x-|-x--x--x--x-x--|-x--x--x--x--x--|----|--x-x--------------|
A|----------|-3/4-|-8--9--8--6-4--|-8--9--8--9--11-|----|--6-11-------------|
E|----------|-----|---------------|----------------|----|-------------------|

Verse 1:

Rhythm Guitarist
e|----------|----------------|----------------------------------------------|
B|----------|----------------|----------------------------------------------|
G|----------|----------------|----------------------------------------------|
D|----------|-11-4-----1--6--|-6-7------------------------------------------|
A|----------|-11-4-----1--6--|-6-7------------------------------------------|
D|----------|-11-4-----1--6--|-6-7------------------------------------------|

Lead Guitarist
e|----------|----------------|----------------------------------------------|
B|----------|----------------|----------------------------------------------|
G|-11-4-8-6-|----11-10-13-11-|----------------------------------------------|
D|-11-4-8-6-|-11-11-10-13-11-|-6-7------------------------------------------|
A|-9--2-6-4-|-11-9--8--11-9--|-6-7------------------------------------------|
E|----------|-9--------------|-4-5------------------------------------------|


Chorus:

Rhythm Guitarist
e|----------|----------|----------|-----------------------------------------|
B|----------|----------|----------|-----------------------------------------|
G|----------|----------|----------|-----------------------------------------|
D|-8--------|-4--------|-11-------|-6---------------------------------------|
A|-8--------|-4--------|-11-------|-6---------------------------------------|
D|-8--------|-4--------|-11-------|-6---------(x2)--------------------------|

Lead Guitarist
e|----------|----------|----------|-----------------------------------------|
B|-6-6-7-7--|-9-9-7-7--|----------|-----------------------------------------|
G|--6-6-6-6-|--6-6-6-6-|-6-6-8-8--|-5-5-6-6---------------------------------|
D|----------|----------|--6-6-6-6-|--6-6-6-6--------------------------------|
A|----------|----------|----------|-----------------------------------------|
E|----------|----------|----------|-----------(x2)--------------------------|

- REPEAT INTRO -

Verse 2:

Rhythm Guitarist
e|----------|----|------------|---------------------------------------------|
B|----------|----|------------|---------------------------------------------|
G|----------|----|------------|---------------------------------------------|
D|----------|-11-|-4--------1-|-6-7-----------------------------------------|
A|----------|-11-|-4--------1-|-6-7-----------------------------------------|
D|----------|-11-|-4--------1-|-6-7-----------------------------------------|

Lead Guitarist
e|----------|----|------------|---------------------------------------------|
B|----------|----|------------|---------------------------------------------|
G|----------|----|-13-11-10-8-|---------------------------------------------|
D|-11-4-8-6-|-11-|-13-11-10-8-|-6-7-----------------------------------------|
A|-11-4-8-6-|-11-|-11-9--8--6-|-6-7-----------------------------------------|
E|-9--2-6-4-|-9--|------------|-4-5-----------------------------------------|

- REPEAT CHORUS -

Bridge:

Rhythm Guitarist
e|--------------------------------------------------------------------------|
B|--------------------------------------------------------------------------|
G|--------------------------------------------------------------------------|
D|-11-11/3-4-4-6------11-11/3-4-4-6------11-11/3-6--------------------------|
A|-11-11/3-4-4-6------11-11/3-4-4-6------11-11/3-6--------------------------|
D|-11-11/3-4-4-6-(x2)-11-11/3-4-4-6-(x3)-11-11/3-6--------------------------|

Lead Guitarist
e|-9-9-9-9-11-11-11-11-9-9-9-9----------------------------------------------|
B|--9-9-9-9--9--9--9--9-9-9-9-9-11-9-7-9------------------------------------|
G|---------------------------------------10-8-6-8-6-------------------------|
D|--------------------------------------------------------------------------|
A|--------------------------------------------------------------------------|
E|---------------------------------------------------(x6)-------------------|

- REPEAT CHORUS -

Both Lead & Rhythm Guitar Plays Chords) ** See Chorus **
comments
We did not receive enough feedback on this tab! Please rate:
print report bad tab
1 2 3 4 5
I want to post or [tab]
guest
You may want to rate the tab now too:
select rating
Please do not post tabs as comments. Select "correction" instead!