Oops, an error
Loading. Please wait.

Dear Marioa Count Me In Tab

4,955 views 6 this week
7 commentsread comments
1 2 3 4 5
please rate
add to favorites
launch autoscroll
font size
0
reset
how to read this tab
guitar tuner
Tab Pro tools
  • play this tab
  • loop segment
  • change instrument
  • show fretboard
  • metronome
×
Best way to learn
"Dear Marioa Count Me In"
Autoscroll
slow
fast
+/-
esc
set tempo
stop
Contributor
This is Dear Maria, the right way, haha we played it like this at a show and it sounds 
One guitar is in drop D and ones in standord.

"I got you picture..."
(Palm Mute)
E-----------------------------------------------------------------|
B-----------------------------------------------------------------|
G-444444444444444--------------------------------------------6-77-|
D-444444444444444-555555555555555-0000000000000-777777777777-x-xx-|
A-222222222222222-555555555555555-0000000000000-777777777777-4-55-|
D-----------------555555555555555-0000000000000-777777777777------|

Intro
Guitar One
E---------------------------------------|
B---------------------------------------|
G---------------------77777777----------|
D-555555555-777777777-77777777-44444444-|
A-555555555-777777777-55555555-44444444-|
E-333333333-555555555----------22222222-|

Guitar 2
E--------------------|
B--------------------|
G-1111111-12--11-9-7-|
D-xxxxxxx-xx--x--x-x-|
A-9999999-10--9--7-5-|
D--------------------| X3 then play...

Guitar 2 still..
E--------------|
B--------------|
G-999999-14~~~-|
D-xxxxxx-xx~~~-
A-777777-12~~~-|
D--------------|

"When the light go out.."
Guitar 1
(Palm Mute)
E------------------------------------|
B------------------------------------|
G------------------------------------|
D-00000000-55555555-22222222-7777777-|
A-00000000-55555555-22222222-7777777-|
D-00000000-55555555-22222222-7777777-|

"Go on and play the leader.."

Guitar 1
(Palm Mute)
E------------------------------------------|
B------------------------------------------|
G------------------------------------------|
D-00000000-55555555-22222222-7777777888888-|
A-00000000-55555555-22222222-7777777888888-|
D-00000000-55555555-22222222-7777777888888-|

"Go on and play the leader.."
Guitar 2
Play in a rythem until the chorus
E---------------|
B---------------|
G-7-7-7-7-7-7-7-|
D-x-x-x-x-x-x-x-|
A-5-5-5-5-5-5-5-|
E---------------|

Chorus
Both Guitars
"I got your picture..."
E------------------------------------------------------------|
B------------------------------------------------------------|
G-444444444444444--------------------------------------------|
D-444444444444444-555555555555555-0000000000000-777777777777-|
A-222222222222222-555555555555555-0000000000000-777777777777-|
D-----------------555555555555555-0000000000000-777777777777-|

"Make it Count.."
E------------------------------------------------------------|
B------------------------------------------------------------|
G-444444444444444--------------------------------------------|
D-444444444444444-555555555555555-0000000000000-777777777777-|
A-222222222222222-555555555555555-0000000000000-777777777777-|
D-----------------555555555555555-0000000000000-777777777777-|

Intro
Guitar One
E---------------------------------------|
B---------------------------------------|
G---------------------77777777----------|
D-555555555-777777777-77777777-44444444-|
A-555555555-777777777-55555555-44444444-|
E-333333333-555555555----------22222222-|

Guitar 2
E--------------------|
B--------------------|
G-1111111-12--11-9-7-|
D-xxxxxxx-xx--x--x-x-|
A-9999999-10--9--7-5-|
D--------------------| X3 then play...

Guitar 2 still..
E--------------|
B--------------|
G-999999-14~~~-|
D-xxxxxx-xx~~~-
A-777777-12~~~-|
D--------------|

"Then in the field.."
(palm mute)
E------------------------------------|
B------------------------------------|
G------------------------------------|
D-00000000-55555555-22222222-7777777-|
A-00000000-55555555-22222222-7777777-|
D-00000000-55555555-22222222-7777777-|

"I'll see your name in lights..."
E------------------------------------|
B------------------------------------|
G------------------------------------|
D-0-0-5555555-2222222-77777778888888-|
A-0-0-5555555-2222222-77777778888888-|
D-0-0-5555555-2222222-77777778888888-|

Chorus
Both Guitars
"I got your picture..."
E------------------------------------------------------------|
B------------------------------------------------------------|
G-444444444444444--------------------------------------------|
D-444444444444444-555555555555555-0000000000000-777777777777-|
A-222222222222222-555555555555555-0000000000000-777777777777-|
D-----------------555555555555555-0000000000000-777777777777-|

"Make it Count.."
E------------------------------------------------------------|
B------------------------------------------------------------|
G-444444444444444--------------------------------------------|
D-444444444444444-555555555555555-0000000000000-777777777777-|
A-222222222222222-555555555555555-0000000000000-777777777777-|
D-----------------555555555555555-0000000000000-777777777777-|

Bridge
"haha"
"Take a breath don't it sound so easy..."
Guitar One
E-------------------|
B-------------------|
G-------------------|
D-00-77-44-55-55-77-|
A-00-77-44-55-55-77-|
D-00-77-44-55-55-77-|

"Take a breath let the rest come easy..."
Guitar One
E-------------------|
B-------------------|
G-------------------|
D-00-77-44-55-55-77-|
A-00-77-44-55-55-77-|
D-00-77-44-55-55-77-|

"Take a breath let the rest come easy..."
Guitar 2
E--------------------------------------|
B--------------------------------------|
G-7-7-7-7-7-7-7-7-11-11-11-12-12-12-12-|
D-x-x-x-x-x-x-x-x--x--x--x-x--xx-xx-x--|
A-5-5-5-5-5-5-5-5-9-9-9-9-10-10-10-10--|
E--------------------------------------|

"I got your picture..."
E-----------------------------------------------------|
B-----------------------------------------------------|
G-44--------------------------------------------------|
D-44--55555555555-00000000000-7777777777--------------|
A-22--55555555555-00000000000-7777777777--------------|
D-----55555555555-00000000000-7777777777--------------|

"Make it count..."
B------------------------------------------------------------|
G-444444444444444--------------------------------------------|
D-444444444444444-555555555555555-0000000000000-777777777777-|
A-222222222222222-555555555555555-0000000000000-777777777777-|
D-----------------555555555555555-0000000000000-777777777777-|

That's it! very easy and fun to play with 2 guitars and a band. It's pretty much 
Have fun with this. Any Questions? E-mail me at Alwaysfalling01@hotmail.com
comments
We did not receive enough feedback on this tab! Please rate:
print report bad tab
1 2 3 4 5
7 comments total. Showing first comments.
+1 reply
g0tstr1ngs? wrote on December 21 2007, 02:03 pm

you spelled Maria wrong lol better change it if you want people to actually find this tab

+1 reply
AlwaysFalling27 wrote on December 21 2007, 04:08 pm

lol I know, but i don't know how to change it. I also put one wrong chord in the bridge and I don't know how to edit it

-1 reply
ejscan1 wrote on December 30 2007, 01:41 pm

i prefere to play the

G-4444444444
D-4444444444
A-2222222222
D-

as

G-
D-9999999999
A-9999999999
D-9999999999

its basically
the same but i think it sounds better. good tab though. i alex play it a couple days ago and this looks like its right

I want to post or [tab]
guest
You may want to rate the tab now too:
select rating
Please do not post tabs as comments. Select "correction" instead!