Oops, an error
Loading. Please wait.

Dirty Laundry tab

version 1
version 1

Whole song

  • Correct to original song with synth tabs and solo tab.
  • Includes verse and chorus picking.
  • Both Verse Guitar Tracks Tabbed To Stereo Pan.
  • Fingerpicking tab (with a chord part at the end). ... Show more
5,686 views 63 this week
1 commentread comment
1 2 3 4 5
x 7
add to favorites
×
Save as Personal and add changes to this tab that will be seen only by you. Learn more ›
×
You can save this tab as Personal to edit and correct it or add notes. All changes will be seen only by you. Learn more »
launch autoscroll
font size
0
reset
how to read this tab
guitar tuner
edit
Autoscroll
slow
fast
+/-
esc
set tempo
stop
Author
Difficulty
About this tab version
Correct to original song with synth tabs and solo tab. Was this info helpful? Yes No
Dirty Laundry
By All Time Low
Standard Tuning
No Capo
94-96bpm

[VERSE 1]
C                      Am
  I don't believe in saints
C                     Am
  They never make mistakes
C                      Am
  I know it's not my place
C                               Am
  Who am I to tell you that you need to change?

     F       C       Am          G    F       C       Am          G
e|------------------5--------------------------------5------------------|
B|----5-5-5-5-5-5-5---5-5-5-5-5-5------5-5-5-5-5-5-5---5-5-5-5-5-5------|
G|-----------------------------------------------------------------5----|
D|--------------------------------7-------------------------------------|
A|----------------------------------------------------------------------|
E|----------------------------------------------------------------------|

[VERSE 2]

C                      Am
  Her closet's such a mess
C                             Am
  Filled up with all the skeletons she's kept
C                       Am
  Nobody's perfect I confess
    C                            Am
But she's perfect enough without ever dressing up, yeah

[CHORUS]

F    C         Am    G
  Dirty laundry is piling in her room
F           C          Am     G
  She's got her secrets, yeah I got mine too
F               C
  I don't care about what you did
Am           G
  Only care about what we do
F    C
  Dirty laundry
Am      G
  Looks good on you

     F       C       Am          G    F       C       Am          G
e|------------------5--------------------------------5------------------|
B|----5-5-5-5-5-5-5---5-5-5-5-5-5------5-5-5-5-5-5-5---5-5-5-5-5-5------|
G|-----------------------------------------------------------------5----|
D|--------------------------------7-------------------------------------|
A|----------------------------------------------------------------------|
E|----------------------------------------------------------------------|

[VERSE 3]
C                      Am
  Now here's some honesty
C                            Am
  Sometimes I trip over your history
C                         Am
  Wish I could change my mind
             C                                  Am
But it's the things I shouldn't see that always catch my eye

[CHORUS]

F    C         Am    G
  Dirty laundry is piling in her room
F           C          Am     G
  She's got her secrets, yeah I got mine too
F               C
  I don't care about what you did
Am           G
  Only care about what we do
F    C
  Dirty laundry
Am      G
  Looks good on you

     F       C       Am          G
e|------------------5------------------|
B|----5-5-5-5-5-5-5---5-5-5-5-5-5------|
G|-------------------------------------|    x3
D|--------------------------------7----|
A|-------------------------------------|
E|-------------------------------------|

[GUITAR SOLO]
      F           C        Am  G
e|-----------------------------------------|
B|-----------5-5-3-3-3-3/8------7b9r7-5----|
G|---2-2-2-2-------------------------------|    x3
D|-----------------------------------------|
A|-----------------------------------------|
E|-----------------------------------------|

      F           C          Am          G
e|---------------------------------------------------|
B|-----------5-5-3-3-3-3/8----------5-5-3-3-3-3-1----|
G|---2-2-2-2----------------2-2-2-2------------------|
D|---------------------------------------------------|
A|---------------------------------------------------|
E|---------------------------------------------------|

[CHORUS]

F    C         Am    G
  Dirty laundry is piling in her room
F           C          Am     G
  She's got her secrets, yeah I got mine too
F               C
  I don't care about what you did
Am           G
  Only care about what we do
F    C
  Dirty laundry
Am      G
  Looks good on you

[OUTRO]
F    C
  Dirty laundry
Am      G
  Looks good on you
F    C
  Dirty laundry
Am      G
  Looks good on you

     F       C       Am          G    F       C       Am          G
e|------------------5--------------------------------5------------------|
B|----5-5-5-5-5-5-5---5-5-5-5-5-5------5-5-5-5-5-5-5---5-5-5-5-5-5------|
G|-----------------------------------------------------------------5----|
D|--------------------------------7-------------------------------------|
A|----------------------------------------------------------------------|
E|----------------------------------------------------------------------|

************************************

| r  Release
| b  Bend
| /  Slide up

************************************
Suggest correction
Creating personal tab
Creating personal tab
You can edit any tab online and save it as your Personal.

You can edit, replace or remove any tab part or add personal notes – all changes will be seen only by you.

Personal tabs can be accessed anytime from any device, even offline.
Learn more »
comments
print report bad tab
1 comment total.
+2 reply
yuketoy 10 Feb 21, 2017 07:50 AM

e|-----------------------------------------|
B|-----------5-5-3-3-3-3/8------7b9r7-5----|
G|---2-2-2-2-------------------------------| x3
D|-----------------------------------------|
A|-----------------------------------------|
E|-----------------------------------------|

I believe this should be

e|-----------------------------------------|
B|-----------5-5-3-3-3-3/8-----------------|
G|---2-2-2-2--------------------7b9r7-5----| x3
D|-----------------------------------------|
A|-----------------------------------------|
E|-----------------------------------------|

guest
You may want to rate the tab now too:
select rating
Wanna post a correction for this tab? Suggest correction