Oops, an error
Loading. Please wait.

Dirty Laundry tab

version 2
version 2

Whole song

  • Correct to original song with synth tabs and solo tab.
  • Includes verse and chorus picking.
  • Both Verse Guitar Tracks Tabbed To Stereo Pan.
  • Fingerpicking tab (with a chord part at the end). ... Show more
3,214 views 36 this week
no commentswrite comment
1 2 3 4 5
x 4
add to favorites
×
Save as Personal and add changes to this tab that will be seen only by you. Learn more ›
×
You can save this tab as Personal to edit and correct it or add notes. All changes will be seen only by you. Learn more »
launch autoscroll
font size
0
reset
how to read this tab
guitar tuner
edit
Autoscroll
slow
fast
+/-
esc
set tempo
stop
DIRTY LAUNDRY

{verse}
E|------------------------------------------------------|
B|-------1--------1-----1--------1------------1---------|
G|-----0---0-------------------0---0--------0---0-------|
D|-------------2-----3----------------------------------|
A|--3-----------------------0---------------------------|
E|--------------------------------------3---------------|
   I DON’T BELIEVE IN SAINTS

E|------------------------------------------------------|
B|-------1--------1-----1--------1------------1---------|
G|-----0---0-------------------0---0--------0---0-------|
D|-------------2-----3----------------------------------|
A|--3-----------------------0---------------------------|
E|--------------------------------------3---------------|
   THEY NEVER MAKE MISTAKES

E|------------------------------------------------------|
B|-------1--------1-----1--------1------------1---------|
G|-----0---0-------------------0---0--------0---0-------|
D|-------------2-----3----------------------------------|
A|--3-----------------------0---------------------------|
E|--------------------------------------3---------------|
   I KNOW IT’S NOT MY PLACE

E|------------------------------------------------------|
B|-------1--------1-----1--------1------------1---------|
G|-----0---0-------------------0---0--------0---0-------|
D|-------------2-----3----------------------------------|
A|--3-----------------------0---------------------------|
E|--------------------------------------3---------------|
   WHO AM I TO TELL YOU THAT YOU NEED TO CHANGE

{guitar riff}
B|----------------10----------------------------------10-------------------|
G|--9-9-9-9-9-9-9------9-9-9-9-9-9------9-9-9-9-9-9-9-----9-9-9-9-9-9-5----|
D|----------------------------------7--------------------------------------|

{verse}
E|------------------------------------------------------|
B|-------1--------1-----1--------1------------1---------|
G|-----0---0-------------------0---0--------0---0-------|
D|-------------2-----3----------------------------------|
A|--3-----------------------0---------------------------|
E|--------------------------------------3---------------|
   HER CLOSETS SUCH A MESS

E|------------------------------------------------------|
B|-------1--------1-----1--------1------------1---------|
G|-----0---0-------------------0---0--------0---0-------|
D|-------------2-----3----------------------------------|
A|--3-----------------------0---------------------------|
E|--------------------------------------3---------------|
   FILLED UP WITH ALL THE SKELETONS SHE’S KEPT

E|------------------------------------------------------|
B|-------1--------1-----1--------1------------1---------|
G|-----0---0-------------------0---0--------0---0-------|
D|-------------2-----3----------------------------------|
A|--3-----------------------0---------------------------|
E|--------------------------------------3---------------|
   NOBODY’S PERFECT I CONFESS

E|------------------------------------------------------|
B|-------1--------1-----1--------1------------1---------|
G|-----0---0-------------------0---0--------0---0-------|
D|-------------2-----3----------------------------------|
A|--3-----------------------0---------------------------|
E|--------------------------------------3---------------|
   BUT SHE’S PERFECT ENOUGH WITHOUT EVER DRESSING UP YEAH

{chorus}
E|----------------------------------------------------|
B|--------1----------1-------1------------0-----------|
G|-----------------0--------------------0-------------|
D|----3----------2-------2----------------------------|
A|--3----------3-------0-------------2----------------|
E|---------------------------------0------------------|
   DIRTY LAUNDRY IS PILING IN HER ROOM

E|----------------------------------------------------|
B|--------1--------------1--------1------------0------|
G|---------------------0---------------------0--------|
D|----3--------------2---------2-----------0----------|
A|--3--------------3---------0------------------------|
E|--------------------------------------3-------------|
   SHE’S GOT HER SECRETS YEAH I GOT MINE TOO

E|----------------------------------------------------|
B|--------1--------------1--------1------------0------|
G|---------------------0---------------------0--------|
D|----3--------------2---------2----------------------|
A|--3--------------3---------0------------2-----------|
E|--------------------------------------0-------------|
   I DON’T CARE ABOUT WHAT YOU DID

E|----------------------------------------------------|
B|--------1--------------1--------1------------0------|
G|---------------------0---------------------0--------|
D|----3--------------2---------2-----------0----------|
A|--3--------------3---------0------------------------|
E|--------------------------------------3-------------|
   I ONLY CARE ABOUT WHAT WE DO

E|----------------------------------------------------|
B|--------1--------------1--------1------------0------|
G|---------------------0---------------------0--------|
D|----3--------------2---------2----------------------|
A|--3--------------3---------0------------2-----------|
E|--------------------------------------0-------------|
   DIRTY LAUNDRY LOOKS GOOD ON YOU

{guitar riff}
B|----------------10----------------------------------10-------------------|
G|--9-9-9-9-9-9-9------9-9-9-9-9-9------9-9-9-9-9-9-9-----9-9-9-9-9-9-5----|
D|----------------------------------7--------------------------------------|  

{verse}
E|------------------------------------------------------|
B|-------1--------1-----1--------1------------1---------|
G|-----0---0-------------------0---0--------0---0-------|
D|-------------2-----3----------------------------------|
A|--3-----------------------0---------------------------|
E|--------------------------------------3---------------|
   SOMETIMES I TRIP OVER YOUR HISTORY

E|------------------------------------------------------|
B|-------1--------1-----1--------1------------1---------|
G|-----0---0-------------------0---0--------0---0-------|
D|-------------2-----3----------------------------------|
A|--3-----------------------0---------------------------|
E|--------------------------------------3---------------|
   WISH I COULD CHANGE MY MIND

E|------------------------------------------------------|
B|-------1--------1-----1--------1------------1---------|
G|-----0---0-------------------0---0--------0---0-------|
D|-------------2-----3----------------------------------|
A|--3-----------------------0---------------------------|
E|--------------------------------------3---------------|
   BUT IT’S THE THINGS I SHOULDN’T SEE

E|------------------------------------------------------|
B|-------1--------1-----1--------1------------1---------|
G|-----0---0-------------------0---0--------0---0-------|
D|-------------2-----3----------------------------------|
A|--3-----------------------0---------------------------|
E|--------------------------------------3---------------|
   THAT ALWAYS CATCH MY EYE

{chorus}
E|----------------------------------------------------|
B|--------1----------1-------1------------0-----------|
G|-----------------0--------------------0-------------|
D|----3----------2-------2----------------------------|
A|--3----------3-------0-------------2----------------|
E|---------------------------------0------------------|
   DIRTY LAUNDRY IS PILING IN HER ROOM

E|----------------------------------------------------|
B|--------1--------------1--------1------------0------|
G|---------------------0---------------------0--------|
D|----3--------------2---------2-----------0----------|
A|--3--------------3---------0------------------------|
E|--------------------------------------3-------------|
   SHE’S GOT HER SECRETS YEAH I GOT MINE TOO

E|----------------------------------------------------|
B|--------1--------------1--------1------------0------|
G|---------------------0---------------------0--------|
D|----3--------------2---------2----------------------|
A|--3--------------3---------0------------2-----------|
E|--------------------------------------0-------------|
   I DON’T CARE ABOUT WHAT YOU DID

E|----------------------------------------------------|
B|--------1--------------1--------1------------0------|
G|---------------------0---------------------0--------|
D|----3--------------2---------2-----------0----------|
A|--3--------------3---------0------------------------|
E|--------------------------------------3-------------|
   I ONLY CARE ABOUT WHAT WE DO

E|----------------------------------------------------|
B|--------1--------------1--------1------------0------|
G|---------------------0---------------------0--------|
D|----3--------------2---------2----------------------|
A|--3--------------3---------0------------2-----------|
E|--------------------------------------0-------------|
   DIRTY LAUNDRY LOOKS GOOD ON YOU

{guitar riff}
B|----------------10----------------------------------10-------------------|
G|--9-9-9-9-9-9-9------9-9-9-9-9-9------9-9-9-9-9-9-9-----9-9-9-9-9-9-5----|
D|----------------------------------7--------------------------------------|

{guitar solo}
E|-------------------------------------------------------------------------------|
B|------5----8~~------------------5----8~~-----------------5----8~~--------------|
G|--------7-------7br-5-------------7-------7br-5------------7-------7br-5-------|
D|--7--------------------7----7--------------------7----7-------------------7----|
A|-------------------------------------------------------------------------------|
E|-------------------------------------------------------------------------------|

E|--------------------------------------|
B|------5----8~~-------5----------------|
G|--------7---------------7--5----------|
D|--7--------------7--------------------|
A|--------------------------------------|
E|--------------------------------------|

{chorus}
E|-----------------------------------------|
B|-----------------------------------------|
G|-----------5-5-5-5-----------------------|
D|--3-3-3-3--5-5-5-5--7-7-7-7--5-5-5-5-----|
A|--3-3-3-3--3-3-3-3--7-7-7-7--5-5-5-5-----|
E|--1-1-1-1-----------5-5-5-5--3-3-3-3-----|
   DIRTY LAUNDRY IS PILING IN HER ROOM

E|--------------------------------------------|
B|--------------------------------------------|
G|-----------5-5-5-5-------2-2-2-2------------|
D|--3-3-3-3--5-5-5-5-------2-2-2-2--2-2-2-2---|
A|--3-3-3-3--3-3-3-3-------0-0-0-0--2-2-2-2---|
E|--1-1-1-1-------------------------0-0-0-0---|
   SHE’S GOT HER SECRETS  I’VE GOT MINE TOO

E|-----------------------------------------|
B|-----------------------------------------|
G|-----------5-5-5-5-----------------------|
D|--3-3-3-3--5-5-5-5--7-7-7-7--5-5-5-5-----|
A|--3-3-3-3--3-3-3-3--7-7-7-7--5-5-5-5-----|
E|--1-1-1-1-----------5-5-5-5--3-3-3-3-----|
   I DON’T CARE ABOUT WHAT YOU DID 
   I ONLY CARE ABOUT WHAT WE DO

{outro}
E|---------------------------------------|
B|---------------------------------------|
G|-----------5-5-5-5--2-2-2-2------------|
D|--3-3-3-3--5-5-5-5--2-2-2-2--2-2-2-2---|
A|--3-3-3-3--3-3-3-3--0-0-0-0--2-2-2-2---|
E|--1-1-1-1--------------------0-0-0-0---|
   DIRTY LAUNDRY

E|-----------------------------------------|
B|-----------------------------------------|
G|-----------5-5-5-5-----------------------|
D|--3-3-3-3--5-5-5-5--7-7-7-7--5-5-5-5-----|
A|--3-3-3-3--3-3-3-3--7-7-7-7--5-5-5-5-----|
E|--1-1-1-1-----------5-5-5-5--3-3-3-3-----|
   DIRTY LAUNDRY

E|---------------------------------------|
B|---------------------------------------|
G|-----------5-5-5-5--2-2-2-2------------|
D|--3-3-3-3--5-5-5-5--2-2-2-2--2-2-2-2---|
A|--3-3-3-3--3-3-3-3--0-0-0-0--2-2-2-2---|
E|--1-1-1-1--------------------0-0-0-0---|
   DIRTY LAUNDRY IT LOOKS GOOD ON YOU

{guitar riff}
B|----------------10-----------------------|
G|--9-9-9-9-9-9-9------9-9-9-9-9-9-5-------|
D|-----------------------------------------|

************************************

| br  Bend release
| ~   Vibrato

************************************

            
            
Suggest correction
Creating personal tab
Creating personal tab
You can edit any tab online and save it as your Personal.

You can edit, replace or remove any tab part or add personal notes – all changes will be seen only by you.

Personal tabs can be accessed anytime from any device, even offline.
Learn more »
comments
print report bad tab
guest
You may want to rate the tab now too:
select rating
Wanna post a correction for this tab? Suggest correction