Oops, an error
Loading. Please wait.

Dirty Laundry tab

version 4
version 4

Whole song

  • Correct to original song with synth tabs and solo tab.
  • Includes verse and chorus picking.
  • Both Verse Guitar Tracks Tabbed To Stereo Pan.
  • Fingerpicking tab (with a chord part at the end). ... Show more
154 views 1 this week
no commentswrite comment
1 2 3 4 5
2 more votes to show rating
add to favorites
×
Save as Personal and add changes to this tab that will be seen only by you. Learn more ›
×
You can save this tab as Personal to edit and correct it or add notes. All changes will be seen only by you. Learn more »
launch autoscroll
font size
0
reset
how to read this tab
guitar tuner
edit
Autoscroll
slow
fast
+/-
esc
set tempo
stop
About this tab version
Both Verse Guitar Tracks Tabbed To Stereo Pan. Was this info helpful? Yes No
This is a complete tab of Dirty Laundry by All Time Low

[Verse] Guitar 1:
"I Don't Believe In Saints..."
E|--------8--------0-----0--------0-----------0-----|
B|-----8-----8-----------------------8-----------8--|
G|-----------------------------5-----------5--------| (x3)
D|--------------------------------------------------|
A|--------------7-----8-----0-----------0-----------|
E|--8-----------------------------------------------|

[Verse] Guitar 1 (continued):
"Who Am I To Tell You..."
E|--------8--------0-----0--------0-----------------|
B|-----8-----8-----------------------8--------0-----|
G|-----------------------------5--------------4-----|
D|-----------------------------------------5--------|
A|--------------7-----8-----0-----------------------|
E|--8-----------------------------------3-----------|
(Guitar 1 on the verses is panned left on the stereo 
 track (only on the left speaker\ear phone))

[Verse]Guitar 2:
"I Don't Believe In Saints..."
E|--------8--------8-----8--------8-----------8-----|
B|-----8-----8-----------------------0-----------0--|
G|-----------------------------5-----------5--------| 
D|--------------------------------------------------| (x3)
A|--------------7-----8-----0-----------0-----------|
E|--8-----------------------------------------------|

[Verse] Guitar 2 (continued):
"Who Am I To Tell You..."
E|--------8--------8-----8--------8--------------|
B|-----8-----8-----------------------0--------0--|
G|-----------------------------5--------------4--|
D|-----------------------------------------5-----|
A|--------------7-----8-----0--------------------|
E|--8-----------------------------------3--------|
(Guitar 2 on the verses is panned right on the stereo 
 track (only on the right speaker\ear phone))


[Break] Guitar 1:
E|-----------------------------------------------|----------------------------------------------|
B|--5--5--5--5--5--5--5/10--5--5--5--5--5--5-----|--5--5--5--5--5--5--5/10--5--5--5--5--5--5\1--|
G|--------------------------------------------2--|----------------------------------------------|
D|-----------------------------------------------|----------------------------------------------|
A|-----------------------------------------------|----------------------------------------------|
E|-----------------------------------------------|----------------------------------------------|

[Break]Guitar 2:
E|--------------|-----------|
B|--------------|-----1--0--| (x2)
G|-----2--------|--2--------|
D|--------2-----|-----------|
A|--------------|-----------|
E|--1-----------|-----------|

[Verse 2]Guitar 1:
"Her Closet's Such a Mess..."
E|--------8--------0-----0--------0-----------0-----|
B|-----8-----8-----------------------8-----------8--|
G|-----------------------------5-----------5--------| (x3)
D|--------------------------------------------------|
A|--------------7-----8-----0-----------0-----------|
E|--8-----------------------------------------------|

[Verse 2] Guitar 1 (continued):
"But She's Perfect Enough..."
E|--------8--------0-----0--------0-----------------|
B|-----8-----8-----------------------8--------0-----|
G|-----------------------------5--------------4-----|
D|-----------------------------------------5--------|
A|--------------7-----8-----0-----------------------|
E|--8-----------------------------------3-----------|

[Verse 2] Guitar 2:
"Her Closet's Such A Mess..."
E|--------8--------8-----8--------8-----------8-----|
B|-----8-----8-----------------------0-----------0--|
G|-----------------------------5-----------5--------| (x3)
D|--------------------------------------------------|
A|--------------7-----8-----0-----------0-----------|
E|--8-----------------------------------------------|

[Verse 2] Guitar 2 (continued):
"But She's Perfect Enough..."
E|--------8--------8-----8--------8--------------|
B|-----8-----8-----------------------0--------0--|
G|-----------------------------5--------------4--|
D|-----------------------------------------5-----|
A|--------------7-----8-----0--------------------|
E|--8-----------------------------------3--------|

[Chorus]Guitar 1:
"Dirty Laundry Is Piling In Her Room..."
E|-----------------|-----------------|
B|-----------------|-----5--------3--|
G|-----2-----------|-----------------| (x4)
D|--------------2--|-----------------|
A|-----------3-----|-----------------|
E|--1--------------|--5--------3-----|

[Break] Guitar 1/Synth:
E|-----------------------------------------------|----------------------------------------------|
B|--5--5--5--5--5--5--5/10--5--5--5--5--5--5-----|--5--5--5--5--5--5--5/10--5--5--5--5--5--5\1--|
G|--------------------------------------------2--|----------------------------------------------|
D|-----------------------------------------------|----------------------------------------------|
A|-----------------------------------------------|----------------------------------------------|
E|-----------------------------------------------|----------------------------------------------|

[Break] Guitar 2:
E|--------------------|--------------------|
B|--------------------|--------------------|
G|-------5----2-------|-------5------------|
D|--3----5----2----2--|--3----5----7----5--|
A|--3----3----0----2--|--3----3----7----5--|
E|--1--------------0--|--1---------5----3--|


[Verse 3] Guitar 1:
"Now Here's Some Honesty..."
E|--------|
B|-----8--|
G|--7-----| (x2)
D|--------|
A|--------|
E|--------|

[Chorus] Guitar 1:
"Dirty Laundry Is Piling In Her Room..."
E|-----------------|-----------------|
B|-----------------|-----5--------3--|
G|-----2-----------|-----------------| (×4)
D|--------------2--|-----------------|
A|-----------3-----|-----------------|
E|--1--------------|--5--------3-----|

[Break] Guitar 1/Synth:
E|-----------------------------------------------|----------------------------------------------|
B|--5--5--5--5--5--5--5/10--5--5--5--5--5--5-----|--5--5--5--5--5--5--5/10--5--5--5--5--5--5\1--|
G|--------------------------------------------2--|----------------------------------------------|
D|-----------------------------------------------|----------------------------------------------|
A|-----------------------------------------------|----------------------------------------------|
E|-----------------------------------------------|----------------------------------------------|
[Break] Guitar 2:
E|--------------------|--------------------|
B|--------------------|--------------------|
G|-------5----2-------|-------5------------|
D|--3----3----0----2--|--3----5----7----5--|
A|--3----3----0----2--|--3----3----7----5--|
E|--1--------------0--|--1---------5----3--|


[Solo] Guitar 1:
E|--------------------------|
B|----------8---------------|
G|-----9p7--------7b9r7--5--| (x3)
D|--7-----------------------|
A|--------------------------|
E|--------------------------|


[Solo] Guitar 1 (Continued):
E|----------------------------|
B|----------8-----------------|
G|-----9p7-----------9p7--5~--|
D|--7-------------7-----------|
A|----------------------------|
E|----------------------------|

[Solo] Guitar 2:
E|--------------------|--------------------|
B|--------------------|--------------------|
G|-------5----2-------|-------5------------| (x2)
D|--3----5----2----2--|--3----5----7----5--|
A|--3----3----0----2--|--3----3----7----5--|
E|--1--------------0--|--1---------5----3--|



[Final Chorus] Both Guitars:
"Dirty Laundry Is Piling In Her Room"
E|--------------------|--------------------|
B|--------------------|--------------------|
G|-------5------------|-------5----2-------| (x3)
D|--3----5----7----5--|--3----5----2----2--|
A|--3----3----7----5--|--3----3----0----2--|
E|--1---------5----3--|--1--------------0--|


[Outro] Guitar 1/Synth:
E|-----------------------------------------------|----------------------------------------------|
B|--5--5--5--5--5--5--5/10--5--5--5--5--5--5-----|--5--5--5--5--5--5--5/10--5--5--5--5--5--5\1--|
G|--------------------------------------------2--|----------------------------------------------|
D|-----------------------------------------------|----------------------------------------------|
A|-----------------------------------------------|----------------------------------------------|
E|-----------------------------------------------|----------------------------------------------|

[Outro] Guitar 2:
E|-----|
B|-----|
G|--5--| (x2)
D|--5--|
A|--3--|
E|-----|

***********************************

| b   Bend
| r   Release
| /   Slide-up
| \   Slide-down
| ~   Vibrato

***********************************

            
            
Suggest correction
Creating personal tab
Creating personal tab
You can edit any tab online and save it as your Personal.

You can edit, replace or remove any tab part or add personal notes – all changes will be seen only by you.

Personal tabs can be accessed anytime from any device, even offline.
Learn more »
Give kudos to tab author, rate the tab!
1 2 3 4 5
comments
print report bad tab
guest
You may want to rate the tab now too:
select rating
Wanna post a correction for this tab? Suggest correction