Oops, an error
Loading. Please wait.

Dirty Laundry tab

version 5
version 5

Whole song

  • Correct to original song with synth tabs and solo tab.
  • Includes verse and chorus picking.
  • Both Verse Guitar Tracks Tabbed To Stereo Pan.
  • Fingerpicking tab (with a chord part at the end). ... Show more
25 views 9 this week
no commentswrite comment
1 2 3 4 5
3 more votes to show rating
add to favorites
×
Save as Personal and add changes to this tab that will be seen only by you. Learn more ›
×
You can save this tab as Personal to edit and correct it or add notes. All changes will be seen only by you. Learn more »
launch autoscroll
font size
0
reset
how to read this tab
guitar tuner
edit
Autoscroll
slow
fast
+/-
esc
set tempo
stop
About this tab version
Fingerpicking tab (with a chord part at the end). Some parts are not exactly like the original song. Was this info helpful? Yes No
This fingerstyle tab uses some of the same patterns from this video: 
https://www.youtube.com/watch?v=da4Q_E5fSL8

[Verse]
e|------------------------------------------------------------------------------------|
B|--------------------1-----1---------------------1-----1--------------------1----1---|
G|---------0-2------0-----0---0---------0-------0-----0---0--------0-2-----0----0---0-|
D|---2-2-2---2-2------------------2-2-2---3-2----------------2-2-2---2-2--------------|
A|-3--------------3-------------3---------3----3------------3------------3------------|
E|---------------------3-----------------------------3------------------------3-------|

e|--------------------------------------|
B|--------------------1-------1---------|
G|---------0-0------0---0---0---0-------|
D|---2-2-2-----3-2--------0-------------|
A|-3-------3---3------------------------|
E|--------------------------------------|

[Interlude]
e|--------------------------------------|
B|-----------------1---0----------------|
G|-----2-------2------------------------| (x2)   (I play this one)
D|--------2-----------------------------|
A|--------------------------------------|
E|--1-----------------------------------|

OR

e|----------------5---------------------|
B|--5-5-5-5-5-5-5---5-5-5-5-5-5-1-------|
G|--------------------------------------| (x2)
D|--------------------------------------|
A|--------------------------------------|
E|--------------------------------------|

[Verse]
e|-----------------------------------------------------------------------------------------|
B|--------------------1-----1-----------------------1-------1---------------------1----1---|
G|---------0-2------0-----0---0---------0-0-------0---0---0---0-------0-0-------0----0---0-|
D|---2-2-2---2-2------------------2-2-2-----3-3-2-------0-------2-2-2-----3-3-2------------|
A|-3--------------3-------------3-------3---3------------------3------3---3----------------|
E|---------------------3------------------------------------------------------------3------|

e|--------------------------------------|
B|--------------------------------------|
G|--------------------------------------|
D|-2-2-2-2-2-----2-2-2-2-2-0------------|
A|-3---------3-3-3----------------------|
E|--------------------------------------|

[Chorus]
e|-------------------------------------------------------------------------------------------------------|
E|-------------------------------------------------------------------------------------------------------|
G|-------2--0---0-------2--0-----------2--0---0-------2--0-------------------------------------2--0---0--|
D|----3-------2------2-------0-0----3-------2------2-------0-0----2-2-2---2-2--2---2----0--2-2------2----|
A|-3-----3----3---0-----0----0---3-----3----3---0-----0----0---3----0---3---0----0----2----3---3----3----|
E|-------------------------------------------------------------------------------------------------------|

e|-----------------------5--------------------|
E|-------5-5-5-5-5-5-5-5---5-5-5-5-5-5-1------|
G|-2-4-4--------------------------------------|(x2) (listen for timing; this may not be written exactly right)
D|--------------------------------------------| 
A|-------0-------3-------0--------------------|
E|-------------------------------3------------|

[Verse]
e|----------------------------------------------------------------------------------------------|
B|--------------------1-------1-----------------------1-------1---------------------1-------1---|
G|---------0-2------0---0---0---0---------0-0-------0---0---0---0---------0-2-----0---0---0---0-|
D|---2-2-2---2-2--------------------2-2-2-----3-3-2-------0---------2-2-2---2-2-----------------|
A|-3--------------3---------------3-------3---3--------------------3-------------3--------------|
E|------------------------3-------------------------------------------------------------3-------|

e|-------------------------|
E|-------------------------|
G|-------------------0-----|
D|-2-2-2-2-2-2-2-2-2---0---|
A|-3---------------3-------|
E|-------------------------|

[Chorus]
e|-------------------------------------------------------------------------------------------------------|
E|-------------------------------------------------------------------------------------------------------|
G|-------2--0---0-------2--0-----------2--0---0-------2--0-------------------------------------2--0---0--|
D|----3-------2------2-------0-0----3-------2------2-------0-0----2-2-2---2-2--2---2----0--2-2------2----|
A|-3-----3----3---0-----0----0---3-----3----3---0-----0----0---3----0---3---0----0----2----3---3----3----|
E|-------------------------------------------------------------------------------------------------------|

e|-----------------------5--------------------|
E|-------5-5-5-5-5-5-5-5---5-5-5-5-5-5-1------|
G|-2-4-4--------------------------------------|(x2)(the original song does it 3 times however that confuses me
D|--------------------------------------------|     sometimes. Play it however many times you want) 
A|-------0-------3-------0--------------------|
E|-------------------------------3------------|

[Solo]
(I usually knock on the body of the guitar once before slapping the strings just to make it
sound more interesting) - workout a good time to do this
e|----------x--------------------x--------------------x--------------------x----------------|
E|---5----8-x-------------5----8-x-------------5----8-x-------------5----8-x----5-----------|
G|-----7----x--7-8-7--5-----7----x--7-8-7--5-----7----x--7-8-7--5-----7----x-------7---5----|
D|-7--------x-----------7--------x-----------7--------x-----------7--------x--7-------------|
A|----------x--------------------x--------------------x--------------------x----------------|
E|----------x--------------------x--------------------x--------------------x----------------|
                                                                           ^
                                                                       NO KNOCK

[Chorus]
F      C     Am         G
Dirty laundry is piling in her room
F          C           Am
She's got her secrets
       G
Yeah I got mine too
F                   C        Am
I don't care about what you did
                 G
Only care about what we do
F       C    Am        G
Dirty laundry (looks good on you)
F*      C*   Am*       G*
Dirty laundry (looks good on you)

e|-0-----0---0----------------------5-----------------------5---------------0--|
B|-1-----1---1-------5-5-5-5-5-5-5-5--------5-5-5-5-5-5-5-5---5-5-5-5-5-5-1-1--|
G|-2-2-0-0-0-2-2-4-4------------------2-4-4---------------------------------0--|
D|-3-----2---2--------------------------------------------------------------2--|
E|-0-----0---0--------------------------------------------------------------3--|
E|-0-----0---0--------------------------------------------------------------0--|


************************************

| x  Dead note

************************************
Suggest correction
Creating personal tab
Creating personal tab
You can edit any tab online and save it as your Personal.

You can edit, replace or remove any tab part or add personal notes – all changes will be seen only by you.

Personal tabs can be accessed anytime from any device, even offline.
Learn more »
Give kudos to tab author, rate the tab!
1 2 3 4 5
comments
print report bad tab
guest
You may want to rate the tab now too:
select rating
Wanna post a correction for this tab? Suggest correction