Oops, an error
Loading. Please wait.

Do You Want Me Dead Bass Tab

version 1
version 1

Whole song

Interactive

2,011 views 1 this week
no commentswrite comment
1 2 3 4 5
x 3
add to favorites
launch autoscroll
font size
0
reset
guitar tuner
Autoscroll
slow
fast
+/-
esc
set tempo
stop
Help us to improve Ultimate-Guitar.com Take our survey!
×
Author
Difficulty
intermediate
======================================================================
|                                                                    |
|            All Time Low - Do You Want Me (Dead?) [Bass]            |
|                                                                    |
======================================================================

Transcribed by: Austen Cheah

+ - indicates tempo
\ - slide down
/ - slide up
x - muted note

=========
| Intro |
=========
  +   +   +   +    +   +   +   +    +   +   +   +    +   +   +   +
G|----------------|----------------|----------------|----------------|
D|----------------|----------------|----------------|----------------|
A|----------------|----------------|------1---------|----------------|
E|----------------|----------------|1---------------|--------------1-|

  +   +   +   +    +   +   +   +
G|----------------|----------------|
D|----------------|----------------|
A|----------------|----------------|
E|1---------------|----------------|

============
| Verse 1a |
============
  +   +   +   +    +   +   +   +    +   +   +   +    +   +   +   +
G|----------------|----------------|----------------|----------------|
D|----------------|----------------|----------------|----------------|
A|----------------|----------------|----------------|----------------|
E|----------------|----------------|----------------|----------------|

  +   +   +   +    +   +   +   +    +   +   +   +    +   +   +   +
G|----------------|----------------|----------------|----------------|
D|----------------|----------------|----------------|----------------|
A|----------------|----------------|----------------|----------------|
E|----------------|----------------|----------------|------------8\--|

  +   +   +   +    +   +   +   +
G|----------------|----------------|
D|----------------|----------------|
A|------0-1-1-1-0-|------0-1-1-1-0-|
E|1-1-1-----------|1-1-1-----------|

============
| Verse 1b |
============
  +   +   +   +    +   +   +   +    +   +   +   +    +   +   +   +
G|----------------|----------------|----------------|----------------|
D|----------------|--------------3-|----------------|--------------3-|
A|------1-1-1-1-0-|------1-1---1---|------1-1-1-1-0-|------1-1---1---|
E|1-1-1-----------|1-1-1-----1-----|1-1-1-----------|1-1-1-----1-----|

  +   +   +   +    +   +   +   +    +   +   +   +    +   +   +   +
G|----------------|----------------|----------------|----------------|
D|----------------|--------------3-|----------------|--------------3-|
A|------1-1-1-1-0-|------1-1---1---|------1-1-1-1-0-|------1-1---1---|
E|1-1-1-----------|1-1-1-----1-----|1-1-1-----------|1-1-1-----1-----|

  +   +   +   +    +   +   +   +    +   +   +   +    +   +   +   +
G|------------0-0-|------------0-0-|----------------|----------------|
D|----------------|----------------|----------------|----------------|
A|2-2-2-2-2-2-----|1-1-1-1-1-1-----|------0-1-1-1-0-|------0-1-1-1-0-|
E|----------------|----------------|1-1-1-----------|1-1-1-----------|

============
| Chorus 1 |
============
  +   +   +   +    +   +   +   +    +   +   +   +    +   +   +   +
G|----------------|----------------|----------------|----------------|
D|0---0-----------|----------------|0---0-----------|----------------|
A|--------3-3-----|1-1-1-----------|--------3-3-----|1-1-1-----------|
E|----------------|------1---0-1-3-|----------------|------1---0-1-3-|

  +   +   +   +    +   +   +   +    +   +   +   +    +   +   +   +
G|----------------|----------------|----------------|----------------|
D|0---0-----------|---------/7-5\3-|--------5-5-5-5-|----------------|
A|--------3-3-----|1-1-1-----------|----------------|----------------|
E|----------------|------1---------|3-3-3-3---------|6-----------8\--|

  +   +   +   +    +   +   +   +    +   +   +   +    +   +   +   +
G|----------------|----------------|----------------|----------------|
D|3-3-2-2-1-1-1-1-|0-0-------------|3-3-2-2-1-1-1-1-|0-0-------------|
A|----------------|----1-1---------|----------------|----1-1---------|
E|----------------|--------1---x-x-|----------------|--------1---x-x-|

===========
| Verse 2 |
===========
  +   +   +   +    +   +   +   +    +   +   +   +    +   +   +   +
G|----------------|----------------|----------------|----------------|
D|----------------|----------------|----------------|----------------|
A|----------------|----------------|----------------|----------------|
E|----------------|----------------|----------------|------------8\--|

  +   +   +   +    +   +   +   +    +   +   +   +    +   +   +   +
G|----------------|----------------|----------------|----------------|
D|--------------1-|--1---0-------3-|----------------|--------------3-|
A|--------3-3-3---|------------1---|------1-1-1-1-0-|------1-1---1---|
E|1---1-----------|----------1-----|1-1-1-----------|1-1-1-----1-----|

  +   +   +   +    +   +   +   +    +   +   +   +    +   +   +   +
G|------------0-0-|------------0-0-|----------------|----------------|
D|----------------|----------------|----------------|----------------|
A|2-2-2-2-2-2-----|1-1-1-1-1-1-----|------0-1-1-1-0-|------0-1-1-1-0-|
E|----------------|----------------|1-1-1-----------|1-1-1-----------|

============
| Chorus 2 |
============
  +   +   +   +    +   +   +   +    +   +   +   +    +   +   +   +
G|----------------|----------------|----------------|----------------|
D|0---0-----------|----------------|0---0-----------|----------------|
A|--------3-3-----|1-1-1-----------|--------3-3-----|1-1-1-----------|
E|----------------|------1---0-1-3-|----------------|------1---0-1-3-|

  +   +   +   +    +   +   +   +    +   +   +   +    +   +   +   +
G|----------------|----------------|----------------|----------------|
D|0---0-----------|---------/7-5\3-|--------5-5-5-5-|----------------|
A|--------3-3-----|1-1-1-----------|----------------|----------------|
E|----------------|------1---------|3-3-3-3---------|6---------------|

==========
| Bridge |
==========
  +   +   +   +    +   +   +   +    +   +   +   +    +   +   +   +
G|----------------|----------------|----------------|----------------|
D|----------------|----------------|----------------|----------------|
A|----------------|----------------|----------------|----------------|
E|----------------|----------------|----------------|------------8\--|

  +   +   +   +    +   +   +   +    +   +   +   +    +   +   +   +
G|----------------|----------------|----------------|----------------|
D|3-3-2-2-1-1-1-1-|0-0-------------|3-3-2-2-1-1-1-1-|0-0-------------|
A|----------------|----1-1---------|----------------|----1-1---------|
E|----------------|--------1---x-x-|----------------|--------1---x-x-|

  +   +   +   +    +   +   +   +    +   +   +   +    +   +   +   +
G|----------------|----------------|----------------|----------------|
D|----------------|----------------|--------------2-|3-3-0-----------|
A|----------------|----------------|------0-1-1-1---|------3---------|
E|----------------|----------------|1-1-1-----------|----------------|

============
| Chorus 3 |
============
  +   +   +   +    +   +   +   +    +   +   +   +    +   +   +   +
G|----------------|----------------|----------------|----------------|
D|0---0-----------|----------------|0---0-----------|----------------|
A|--------3-3-----|1-1-1-----------|--------3-3-----|1-1-1-----------|
E|----------------|------1---0-1-3-|----------------|------1---0-1-3-|

  +   +   +   +    +   +   +   +    +   +   +   +    +   +   +   +
G|----------------|----------------|----------------|----------------|
D|0---0-----------|---------/7-5\3-|--------5-5-5-5-|--------3-------|
A|--------3-3-----|1-1-1-----------|----------------|----------0-1-3-|
E|----------------|------1---------|3-3-3-3---------|6-6-6-6---------|

  +   +   +   +    +   +   +   +    +   +   +   +    +   +   +   +
G|----------------|----------------|----------------|----------------|
D|0---0-----------|----------------|0---0-----------|----------------|
A|--------3-3-----|1-1-1-----------|--------3-3-----|1-1-1-----------|
E|----------------|------1---0-1-3-|----------------|------1---0-1-3-|

  +   +   +   +    +   +   +   +    +   +   +   +    +   +   +   +
G|----------------|----------------|----------------|----------------|
D|0---0-----------|---------/7-5\3-|--------5-5-5-5-|----------------|
A|--------3-3-----|1-1-1-----------|----------------|----------------|
E|----------------|------1---------|3-3-3-3---------|6-6-6-6-6-6-6-6-|

  +   +   +   +    +   +   +   +    +
G|----------------|----------------|---
D|5-5-5-5-5-5-5-5-|----------------|---
A|----------------|----------------|---
E|----------------|6-----------8\--|1-1
Suggest correction
Give kudos to tab author, rate the tab!
1 2 3 4 5
comments
print report bad tab
guest
You may want to rate the tab now too:
select rating
Wanna post a correction for this tab? Suggest correction