Oops, an error
Loading. Please wait.

For Baltimore Tab

version 2
version 2

Whole song

Interactive

20,284 views 21 this week
3 commentsread comments
1 2 3 4 5
x 10
add to favorites
launch autoscroll
font size
0
reset
how to read this tab
guitar tuner
Autoscroll
slow
fast
+/-
esc
set tempo
stop
Help us to improve Ultimate-Guitar.com Take our survey!
×
Author
Difficulty
Tuning
intermediate
D# G# C# F# A# D#
A great song from All Time Low featuring on their upcoming album Don't Panic.
This is completely tabbed by ear so there may be mistakes or variations, feel free 
to let me know if you find any.

This song is tuned down ½ step, easy to do either use an online tuner or if you 
have a capo put on first fret and tune to standard then remove the capo and voila 
tuned to 1.2 step down!

Guitar 1 (Lead)
[Verse 1] (Clean)   (0.00 – 0.23)
D#|---------------0-1-0-------------0-1-0--------------0-1-0-----------|
A#|-----1------1----------1-------1----------0-------1--------3--------|
F#|-----0-----------------2------------------0----------------0--------|
C#|-----2-----------------2------------------2----------------5--------|(x2)
G#|-----3-----------------0------------------2----------------5--------|
D#|------------------------------------------0-------------------------|

[Verse 1] (Distorted)   (0.23 - 0.45)
   P.M.....................            .....................
D#|-----------------------------------------------------------------------|
A#|------------------------------------1--1-1--1--1-1-1--1----------------|
F#|----5--5-5--5--5-5-5--5-------------2--2-2--2--2-2-2--2----------------|
C#|----5--5-5--5--5-5-5--5---2--2h3p2--2--2-2--2--2-2-2--2--2--2h3p2------|
G#|----3--3-3--3--3-3-3--3-3-----------0--0-0--0--0-0-0--0----------------|
D#|-----------------------------------------------------------------------|

   P.M.....................            ..............................
D#|-----------------------------------------------------------------------|
A#|-----------------------------------------------------------------------|
F#|-----------------------------------------------------------------------|
C#|----2--2-2--2--2-2-2--2---2--2h3p2--5--5-5--5--5-5-5--5--5-5-5--5------|
G#|----2--2-2--2--2-2-2--2-3-----------5--5-5--5--5-5-5--5--5-5-5--5------|
D#|----0--0-0--0--0-0-0--0-------------3--3-3--3--3-3-3--3--3-3-3--3------|

   P.M.....................            ....................
D#|-----------------------------------------------------------------------|
A#|------------------------------------1--1-1--1--1-1-1--1----------------|
F#|----5--5-5--5--5-5-5--5-------------2--2-2--2--2-2-2--2----------------|
C#|----5--5-5--5--5-5-5--5---2--2h3p2--2--2-2--2--2-2-2--2--2--2h3p2------|
G#|----3--3-3--3--3-3-3--3-3-----------0--0-0--0--0-0-0--0----------------|
D#|-----------------------------------------------------------------------|

   P.M.....................                 
D#|-----------------------------------------------------------------------|
A#|-----------------------------------------------------------------------|
F#|-----------------------------------------------------------------------|
C#|----2--2-2--2--2-2-2--2---2--2h3p2--5~-----------------------5---------|
G#|----2--2-2--2--2-2-2--2-3-----------5~-----------------------5---------|
D#|----0--0-0--0--0-0-0--0-------------3~-----------------------3---------|

[Chorus 1] (Distorted)
   (0.45 - 1.15)
D#|-----------------------------------------------------------------------|
A#|----------------------------------1--1-1--1-1-1--1-1-1--1-1-1----------|
F#|----5--5-5--5-5-5--5-5-5--5-5-5---2--2-2--2-2-2--2-2-2--2-2-2----------|
C#|----5--5-5--5-5-5--5-5-5--5-5-5---2--2-2--2-2-2--2-2-2--2-2-2----------|
G#|----3--3-3--3-3-3--3-3-3--3-3-3---0--0-0--0-0-0--0-0-0--0-0-0----------|
D#|-----------------------------------------------------------------------|

D#|-----------------------------------------------------------------------|
A#|-----------------------------------------------------------------------|
F#|-----------------------------------------------------------------------|
C#|----2--2-2--2-2-2--2-2-2--2-2-2---5--5-5--5-5-5--5-5-5--5-5-5----------|
G#|----2--2-2--2-2-2--2-2-2--2-2-2---5--5-5--5-5-5--5-5-5--5-5-5----------|
D#|----0--0-0--0-0-0--0-0-0--0-0-0---3--3-3--3-3-3--3-3-3--3-3-3----------|

D#|-----------------------------------------------------------------------|
A#|----------------------------------1--1-1--1-1-1--1-1-1--1-1-1----------|
F#|----5--5-5--5-5-5--5-5-5--5-5-5---2--2-2--2-2-2--2-2-2--2-2-2----------|
C#|----5--5-5--5-5-5--5-5-5--5-5-5---2--2-2--2-2-2--2-2-2--2-2-2----------|
G#|----3--3-3--3-3-3--3-3-3--3-3-3---0--0-0--0-0-0--0-0-0--0-0-0----------|
D#|-----------------------------------------------------------------------|

D#|-----------------------------------------------------------------------|
A#|-----------------------------------------------------------------------|
F#|-----------------------------------------------------------------------|
C#|----2--2-2--2-2-2--2-2-2--2-2-2---5--5-5--5-5-5--5-5-5--5-5-5----------|
G#|----2--2-2--2-2-2--2-2-2--2-2-2---5--5-5--5-5-5--5-5-5--5-5-5----------|
D#|----0--0-0--0-0-0--0-0-0--0-0-0---3--3-3--3-3-3--3-3-3--3-3-3----------|

D#|---------------------------------------------------------------------------|
A#|---------------------------------------------------------------------------|
F#|--------10---10-------10---10----------------10---10--------10---10--------|
C#|--8---8-10---10-8---8-10---10-8--8-7-5--8--8-10---10--8---8-10---10-8-7-5--|
G#|--8---8--8----8-8---8--8----8-8--8-7-5--8--8--8----8--8---8--8----8-8-7-5--|
D#|---------------------------------------------------------------------------|

[Verse 2] (Distorted)   (1.15 - 1.23)
No Guitar, just bass playing

(1.24- 1.27)
   P.M...................
D#|---------------------------------------------|
A#|---------------------------------------------|
F#|---------------------------------------------|
C#|-----5-5-5-5---5-5-5--5\---------------------|
G#|-----5-5-5-5---5-5-5--5\---------------------|
D#|-----3-3-3-3---3-3-3--3\---------------------|

   (1.27- 1.38)
   Original verse melody played by another guitar (see guitar 3 below)
D#|---------8--------8--------------------------------------------|
A#|-------8---8----8---8----8-8---8h10p8--------------------------|
F#|---------------------------------------------------------------|
C#|---------------------------------------------------------------|
G#|---------------------------------------------------------------|
D#|---------------------------------------------------------------| (x2)

D#|---------7--------7--------------------------------------------|
A#|-------8---8----8---8----8-8---8h10p8--------------------------|
F#|---------------------------------------------------------------|
C#|---------------------------------------5~--------------5-------|
G#|---------------------------------------5~--------------5-------|
D#|---------------------------------------3~--------------3-------|

[Chorus 2] (Distorted)   (1.38 - 2.13)
D#|---------------------------------------------------------------------|
A#|----------------------------------1--1-1--1-1-1--1-1-1--1-1-1--------|
F#|----5--5-5--5-5-5--5-5-5--5-5-5---2--2-2--2-2-2--2-2-2--2-2-2--------|
C#|----5--5-5--5-5-5--5-5-5--5-5-5---2--2-2--2-2-2--2-2-2--2-2-2--------|
G#|----3--3-3--3-3-3--3-3-3--3-3-3---0--0-0--0-0-0--0-0-0--0-0-0--------|
D#|---------------------------------------------------------------------|

D#|---------------------------------------------------------------------|
A#|---------------------------------------------------------------------|
F#|---------------------------------------------------------------------|
C#|----2--2-2--2-2-2--2-2-2--2-2-2---5--5-5--5-5-5--5-5-5--5-5-5--------|
G#|----2--2-2--2-2-2--2-2-2--2-2-2---5--5-5--5-5-5--5-5-5--5-5-5--------|
D#|----0--0-0--0-0-0--0-0-0--0-0-0---3--3-3--3-3-3--3-3-3--3-3-3--------|

D#|---------------------------------------------------------------------|
A#|----------------------------------1--1-1--1-1-1--1-1-1--1-1-1--------|
F#|----5--5-5--5-5-5--5-5-5--5-5-5---2--2-2--2-2-2--2-2-2--2-2-2--------|
C#|----5--5-5--5-5-5--5-5-5--5-5-5---2--2-2--2-2-2--2-2-2--2-2-2--------|
G#|----3--3-3--3-3-3--3-3-3--3-3-3---0--0-0--0-0-0--0-0-0--0-0-0--------|
D#|---------------------------------------------------------------------|

D#|---------------------------------------------------------------------|
A#|---------------------------------------------------------------------|
F#|---------------------------------------------------------------------|
C#|----2--2-2--2-2-2--2-2-2--2-2-2---5--5-5--5-5-5--5-5-5--5-5-5--------|
G#|----2--2-2--2-2-2--2-2-2--2-2-2---5--5-5--5-5-5--5-5-5--5-5-5--------|
D#|----0--0-0--0-0-0--0-0-0--0-0-0---3--3-3--3-3-3--3-3-3--3-3-3--------|

D#|---------------------------------------------------------------------------|
A#|---------------------------------------------------------------------------|
F#|--------10---10-------10---10----------------10---10--------10---10--------|
C#|--8---8-10---10-8---8-10---10-8--8-7-5--8--8-10---10--8---8-10---10-8-7-5--|
G#|--8---8--8----8-8---8--8----8-8--8-7-5--8--8--8----8--8---8--8----8-8-7-5--|
D#|---------------------------------------------------------------------------|

D#|---------------------------------------------------------------------------|
A#|---------------------------------------------------------------------------|
F#|-------10---10-------10---10----------------10---10--------10---10-------5-|
C#|-8---8-10---10-8---8-10---10-8--8-7-5--8--8-10---10--8---8-10---10-8-7-5-5-|
G#|-8---8--8----8-8---8--8----8-8--8-7-5--8--8--8----8--8---8--8----8-8-7-5-3-|
D#|---------------------------------------------------------------------------|

[Verse 3] (Clean)   (2.13 – 2.36)
D#|---------------0-1-0-------------0-1-0--------------0-1-0-------------|
A#|-----1------1----------1-------1----------0-------1-------3-----------|
F#|-----0-----------------2------------------0---------------0-----------|
C#|-----2-----------------2------------------2---------------5-----------|
G#|-----3-----------------0------------------2---------------5-----------|
D#|------------------------------------------0---------------------------|

Another guitar melody can be heard playing over the top of this (see guitar 3 below)
D#|---------------0-1-0-------------0-1-0--------------0-1-0-------------|
A#|-----1------1----------1-------1----------0-------1-------------------|
F#|-----0-----------------2------------------0---------------5~-----5----|
C#|-----2-----------------2------------------2---------------5~-----5----|
G#|-----3-----------------0------------------2---------------3~-----3----|
D#|------------------------------------------0---------------------------|

[Chorus 3] (Distorted)   (2.36 - 3.10)
D#|-----------------------------------------------------------------------|
A#|----------------------------------1--1-1--1-1-1--1-1-1--1-1-1----------|
F#|----5--5-5--5-5-5--5-5-5--5-5-5---2--2-2--2-2-2--2-2-2--2-2-2----------|
C#|----5--5-5--5-5-5--5-5-5--5-5-5---2--2-2--2-2-2--2-2-2--2-2-2----------|
G#|----3--3-3--3-3-3--3-3-3--3-3-3---0--0-0--0-0-0--0-0-0--0-0-0----------|
D#|-----------------------------------------------------------------------|

D#|-----------------------------------------------------------------------|
A#|-----------------------------------------------------------------------|
F#|-----------------------------------------------------------------------|
C#|----2--2-2--2-2-2--2-2-2--2-2-2---5--5-5--5-5-5--5-5-5--5-5-5----------|
G#|----2--2-2--2-2-2--2-2-2--2-2-2---5--5-5--5-5-5--5-5-5--5-5-5----------|
D#|----0--0-0--0-0-0--0-0-0--0-0-0---3--3-3--3-3-3--3-3-3--3-3-3----------|

D#|-----------------------------------------------------------------------|
A#|----------------------------------1--1-1--1-1-1--1-1-1--1-1-1----------|
F#|----5--5-5--5-5-5--5-5-5--5-5-5---2--2-2--2-2-2--2-2-2--2-2-2----------|
C#|----5--5-5--5-5-5--5-5-5--5-5-5---2--2-2--2-2-2--2-2-2--2-2-2----------|
G#|----3--3-3--3-3-3--3-3-3--3-3-3---0--0-0--0-0-0--0-0-0--0-0-0----------|
D#|-----------------------------------------------------------------------|

D#|-----------------------------------------------------------------------|
A#|-----------------------------------------------------------------------|
F#|-----------------------------------------------------------------------|
C#|----2--2-2--2-2-2--2-2-2--2-2-2---5--5-5--5-5-5--5-5-5--5-5-5----------|
G#|----2--2-2--2-2-2--2-2-2--2-2-2---5--5-5--5-5-5--5-5-5--5-5-5----------|
D#|----0--0-0--0-0-0--0-0-0--0-0-0---3--3-3--3-3-3--3-3-3--3-3-3----------|

D#|---------------------------------------------------------------------------|
A#|---------------------------------------------------------------------------|
F#|--------10---10-------10---10----------------10---10--------10---10--------|
C#|--8---8-10---10-8---8-10---10-8--8-7-5--8--8-10---10--8---8-10---10-8-7-5--|
G#|--8---8--8----8-8---8--8----8-8--8-7-5--8--8--8----8--8---8--8----8-8-7-5--|
D#|---------------------------------------------------------------------------|

   Guitar 2 (Rhythm)
[Verse 1] (Clean/Acoustic)   (0.00 – 0.23)
D#|----0--------------0--------------0--------------3------3---3-3---3-3----|
A#|----1--------------1--------------0--------------0------0---0-0---0-0----|
F#|----0--------------2--------------0--------------0------0---0-0---0-0----|
C#|----2--------------2--------------2--------------0------0---0-0---0-0----|
G#|----3--------------0--------------2--------------2------2---2-2---2-2----|
D#|----------------------------------0--------------3------3---3-3---3-3----|

D#|----0---0---0-0---0-0----0---0---0-0---0-0----0---0---0-0---0-0-----3----|
A#|----1---1---1-1---1-1----1---1---1-1---1-1----0---0---0-0---0-0-----0~---|
F#|----0---0---0-0---0-0----2---2---2-2---2-2----0---0---0-0---0-0-----0~---|
C#|----2---2---2-2---2-2----2---2---2-2---2-2----2---2---2-2---2-2-----0~---|
G#|----3---3---3-3---3-3----0---0---0-0---0-0----2---2---2-2---2-2-----2~---|
D#|----------------------------------------------0---0---0-0---0-0-----3~---|

[Verse 1] (Distorted)   (0.23 - 0.45)
   P.M...................................................................
D#|-------------------------------------------------------------------------|
A#|------------------------------------1--1-1--1--1-1-1--1-1-1--1-1-1-------|
F#|----5--5-5--5--5-5-5--5-5-5--5-5-5--2--2-2--2--2-2-2--2-2-2--2-2-2-------|
C#|----5--5-5--5--5-5-5--5-5-5--5-5-5--2--2-2--2--2-2-2--2-2-2--2-2-2-------|
G#|----3--3-3--3--3-3-3--3-3-3--3-3-3--0--0-0--0--0-0-0--0-0-0--0-0-0-------|
D#|-------------------------------------------------------------------------|

   P.M.................................................................
D#|-------------------------------------------------------------------------|
A#|-------------------------------------------------------------------------|
F#|-------------------------------------------------------------------------|
C#|----2--2-2--2--2-2-2--2-2-2--2-2-2--5--5-5--5--5-5-5--5--5-5-5--5--------|
G#|----2--2-2--2--2-2-2--2-2-2--2-2-2--5--5-5--5--5-5-5--5--5-5-5--5--------|
D#|----0--0-0--0--0-0-0--0-0-0--0-0-0--3--3-3--3--3-3-3--3--3-3-3--3--------|

   P.M...................................................................
D#|-------------------------------------------------------------------------|
A#|------------------------------------1--1-1--1--1-1-1--1-1-1--1-1-1-------|
F#|----5--5-5--5--5-5-5--5-5-5--5-5-5--2--2-2--2--2-2-2--2-2-2--2-2-2-------|
C#|----5--5-5--5--5-5-5--5-5-5--5-5-5--2--2-2--2--2-2-2--2-2-2--2-2-2-------|
G#|----3--3-3--3--3-3-3--3-3-3--3-3-3--0--0-0--0--0-0-0--0-0-0--0-0-0-------|
D#|-------------------------------------------------------------------------|

   P.M................................
D#|-------------------------------------------------------------------------|
A#|-------------------------------------------------------------------------|
F#|-------------------------------------------------------------------------|
C#|----2--2-2--2--2-2-2--2-2-2--2-2-2--5~-------------------------5---------|
G#|----2--2-2--2--2-2-2--2-2-2--2-2-2--5~-------------------------5---------|
D#|----0--0-0--0--0-0-0--0-0-0--0-0-0--3~-------------------------3---------|

[Chorus 1] (Distorted)  (0.45 - 1.15)
D#|-----------------------------------------------------------------------|
A#|----------------------------------1--1-1--1-1-1--1-1-1--1-1-1----------|
F#|----5--5-5--5-5-5--5-5-5--5-5-5---2--2-2--2-2-2--2-2-2--2-2-2----------|
C#|----5--5-5--5-5-5--5-5-5--5-5-5---2--2-2--2-2-2--2-2-2--2-2-2----------|
G#|----3--3-3--3-3-3--3-3-3--3-3-3---0--0-0--0-0-0--0-0-0--0-0-0----------|
D#|-----------------------------------------------------------------------|

D#|-----------------------------------------------------------------------|
A#|-----------------------------------------------------------------------|
F#|-----------------------------------------------------------------------|
C#|----2--2-2--2-2-2--2-2-2--2-2-2---5--5-5--5-5-5--5-5-5--5-5-5----------|
G#|----2--2-2--2-2-2--2-2-2--2-2-2---5--5-5--5-5-5--5-5-5--5-5-5----------|
D#|----0--0-0--0-0-0--0-0-0--0-0-0---3--3-3--3-3-3--3-3-3--3-3-3----------|

D#|-----------------------------------------------------------------------|
A#|----------------------------------1--1-1--1-1-1--1-1-1--1-1-1----------|
F#|----5--5-5--5-5-5--5-5-5--5-5-5---2--2-2--2-2-2--2-2-2--2-2-2----------|
C#|----5--5-5--5-5-5--5-5-5--5-5-5---2--2-2--2-2-2--2-2-2--2-2-2----------|
G#|----3--3-3--3-3-3--3-3-3--3-3-3---0--0-0--0-0-0--0-0-0--0-0-0----------|
D#|-----------------------------------------------------------------------|

D#|-----------------------------------------------------------------------|
A#|-----------------------------------------------------------------------|
F#|-----------------------------------------------------------------------|
C#|----2--2-2--2-2-2--2-2-2--2-2-2---5--5-5--5-5-5--5-5-5--5-5-5----------|
G#|----2--2-2--2-2-2--2-2-2--2-2-2---5--5-5--5-5-5--5-5-5--5-5-5----------|
D#|----0--0-0--0-0-0--0-0-0--0-0-0---3--3-3--3-3-3--3-3-3--3-3-3----------|

D#|---------------------------------------------------------------------------|
A#|---------------------------------------------------------------------------|
F#|--------10---10-------10---10----------------10---10--------10---10--------|
C#|--8---8-10---10-8---8-10---10-8--8-7-5--8--8-10---10--8---8-10---10-8-7-5--|
G#|--8---8--8----8-8---8--8----8-8--8-7-5--8--8--8----8--8---8--8----8-8-7-5--|
D#|---------------------------------------------------------------------------|

[Verse 2] (Distorted)   (1.15 - 1.23)
No Guitar, just bass playing

   (1.24- 1.27)
   P.M...................
D#|---------------------------------------------|
A#|---------------------------------------------|
F#|---------------------------------------------|
C#|-----5-5-5-5---5-5-5--5\---------------------|
G#|-----5-5-5-5---5-5-5--5\---------------------|
D#|-----3-3-3-3---3-3-3--3\---------------------|

   (1.27- 1.38)
   P.M.............................................................
D#|-------------------------------------------------------------------------|
A#|----------------------------------1--1-1--1-1-1--1-1-1--1-1-1------------|
F#|----5--5-5--5-5-5--5-5-5--5-5-5---2--2-2--2-2-2--2-2-2--2-2-2------------|
C#|----5--5-5--5-5-5--5-5-5--5-5-5---2--2-2--2-2-2--2-2-2--2-2-2------------|
G#|----3--3-3--3-3-3--3-3-3--3-3-3---0--0-0--0-0-0--0-0-0--0-0-0------------|
D#|-------------------------------------------------------------------------|

   P.M................................
D#|-------------------------------------------------------------------------|
A#|-------------------------------------------------------------------------|
F#|-------------------------------------------------------------------------|
C#|----2--2-2--2--2-2-2--2-2-2--2-2-2--5~-------------------------5---------|
G#|----2--2-2--2--2-2-2--2-2-2--2-2-2--5~-------------------------5---------|
D#|----0--0-0--0--0-0-0--0-0-0--0-0-0--3~-------------------------3---------|

[Chorus 2] (Distorted)   (1.38 - 2.13)
D#|---------------------------------------------------------------------|
A#|----------------------------------1--1-1--1-1-1--1-1-1--1-1-1--------|
F#|----5--5-5--5-5-5--5-5-5--5-5-5---2--2-2--2-2-2--2-2-2--2-2-2--------|
C#|----5--5-5--5-5-5--5-5-5--5-5-5---2--2-2--2-2-2--2-2-2--2-2-2--------|
G#|----3--3-3--3-3-3--3-3-3--3-3-3---0--0-0--0-0-0--0-0-0--0-0-0--------|
D#|---------------------------------------------------------------------|

D#|---------------------------------------------------------------------|
A#|---------------------------------------------------------------------|
F#|---------------------------------------------------------------------|
C#|----2--2-2--2-2-2--2-2-2--2-2-2---5--5-5--5-5-5--5-5-5--5-5-5--------|
G#|----2--2-2--2-2-2--2-2-2--2-2-2---5--5-5--5-5-5--5-5-5--5-5-5--------|
D#|----0--0-0--0-0-0--0-0-0--0-0-0---3--3-3--3-3-3--3-3-3--3-3-3--------|

D#|---------------------------------------------------------------------|
A#|----------------------------------1--1-1--1-1-1--1-1-1--1-1-1--------|
F#|----5--5-5--5-5-5--5-5-5--5-5-5---2--2-2--2-2-2--2-2-2--2-2-2--------|
C#|----5--5-5--5-5-5--5-5-5--5-5-5---2--2-2--2-2-2--2-2-2--2-2-2--------|
G#|----3--3-3--3-3-3--3-3-3--3-3-3---0--0-0--0-0-0--0-0-0--0-0-0--------|
D#|---------------------------------------------------------------------|

D#|---------------------------------------------------------------------|
A#|---------------------------------------------------------------------|
F#|---------------------------------------------------------------------|
C#|----2--2-2--2-2-2--2-2-2--2-2-2---5--5-5--5-5-5--5-5-5--5-5-5--------|
G#|----2--2-2--2-2-2--2-2-2--2-2-2---5--5-5--5-5-5--5-5-5--5-5-5--------|
D#|----0--0-0--0-0-0--0-0-0--0-0-0---3--3-3--3-3-3--3-3-3--3-3-3--------|

D#|---------------------------------------------------------------------------|
A#|---------------------------------------------------------------------------|
F#|--------10---10-------10---10----------------10---10--------10---10--------|
C#|--8---8-10---10-8---8-10---10-8--8-7-5--8--8-10---10--8---8-10---10-8-7-5--|
G#|--8---8--8----8-8---8--8----8-8--8-7-5--8--8--8----8--8---8--8----8-8-7-5--|
D#|---------------------------------------------------------------------------|

D#|---------------------------------------------------------------------------|
A#|---------------------------------------------------------------------------|
F#|-------10---10-------10---10----------------10---10--------10---10-------5-|
C#|-8---8-10---10-8---8-10---10-8--8-7-5--8--8-10---10--8---8-10---10-8-7-5-5-|
G#|-8---8--8----8-8---8--8----8-8--8-7-5--8--8--8----8--8---8--8----8-8-7-5-3-|
D#|---------------------------------------------------------------------------|

[Verse 3] (Clean)   (2.13 – 2.36)
D#|----0--------------0--------------0--------------3------3---3-3---3-3----|
A#|----1--------------1--------------0--------------0------0---0-0---0-0----|
F#|----0--------------2--------------0--------------0------0---0-0---0-0----|
C#|----2--------------2--------------2--------------0------0---0-0---0-0----|
G#|----3--------------0--------------2--------------2------2---2-2---2-2----|
D#|----------------------------------0--------------3------3---3-3---3-3----|

D#|----0---0---0-0---0-0----0---0---0-0---0-0----0---0---0-0---0-0----------|
A#|----1---1---1-1---1-1----1---1---1-1---1-1----0---0---0-0---0-0----------|
F#|----0---0---0-0---0-0----2---2---2-2---2-2----0---0---0-0---0-0---5~--5--|
C#|----2---2---2-2---2-2----2---2---2-2---2-2----2---2---2-2---2-2---5~--5--|
G#|----3---3---3-3---3-3----0---0---0-0---0-0----2---2---2-2---2-2---3~--3--|
D#|----------------------------------------------0---0---0-0---0-0----------|

[Chorus 3] (Distorted)   (2.36 - 3.10)
D#|-----------------------------------------------------------------------|
A#|----------------------------------1--1-1--1-1-1--1-1-1--1-1-1----------|
F#|----5--5-5--5-5-5--5-5-5--5-5-5---2--2-2--2-2-2--2-2-2--2-2-2----------|
C#|----5--5-5--5-5-5--5-5-5--5-5-5---2--2-2--2-2-2--2-2-2--2-2-2----------|
G#|----3--3-3--3-3-3--3-3-3--3-3-3---0--0-0--0-0-0--0-0-0--0-0-0----------|
D#|-----------------------------------------------------------------------|

D#|-----------------------------------------------------------------------|
A#|-----------------------------------------------------------------------|
F#|-----------------------------------------------------------------------|
C#|----2--2-2--2-2-2--2-2-2--2-2-2---5--5-5--5-5-5--5-5-5--5-5-5----------|
G#|----2--2-2--2-2-2--2-2-2--2-2-2---5--5-5--5-5-5--5-5-5--5-5-5----------|
D#|----0--0-0--0-0-0--0-0-0--0-0-0---3--3-3--3-3-3--3-3-3--3-3-3----------|

D#|-----------------------------------------------------------------------|
A#|----------------------------------1--1-1--1-1-1--1-1-1--1-1-1----------|
F#|----5--5-5--5-5-5--5-5-5--5-5-5---2--2-2--2-2-2--2-2-2--2-2-2----------|
C#|----5--5-5--5-5-5--5-5-5--5-5-5---2--2-2--2-2-2--2-2-2--2-2-2----------|
G#|----3--3-3--3-3-3--3-3-3--3-3-3---0--0-0--0-0-0--0-0-0--0-0-0----------|
D#|-----------------------------------------------------------------------|

D#|-----------------------------------------------------------------------|
A#|-----------------------------------------------------------------------|
F#|-----------------------------------------------------------------------|
C#|----2--2-2--2-2-2--2-2-2--2-2-2---5--5-5--5-5-5--5-5-5--5-5-5----------|
G#|----2--2-2--2-2-2--2-2-2--2-2-2---5--5-5--5-5-5--5-5-5--5-5-5----------|
D#|----0--0-0--0-0-0--0-0-0--0-0-0---3--3-3--3-3-3--3-3-3--3-3-3----------|

D#|---------------------------------------------------------------------------|
A#|---------------------------------------------------------------------------|
F#|--------10---10-------10---10----------------10---10--------10---10--------|
C#|--8---8-10---10-8---8-10---10-8--8-7-5--8--8-10---10--8---8-10---10-8-7-5--|
G#|--8---8--8----8-8---8--8----8-8--8-7-5--8--8--8----8--8---8--8----8-8-7-5--|
D#|---------------------------------------------------------------------------|

Guitar 3 (Extras)
[Verse 1] (Clean) (0.00 – 0.45)
No guitar

[Chorus 1] (Distorted) (0.45 - 1.15)
No guitar

[Verse 2] (Distorted) (1.15 - 1.27)
No guitar 

   (1.27- 1.38)
   P.M.....................            .....................
D#|-----------------------------------------------------------------------|
A#|------------------------------------1--1-1--1--1-1-1--1----------------|
F#|----5--5-5--5--5-5-5--5-------------2--2-2--2--2-2-2--2----------------|
C#|----5--5-5--5--5-5-5--5---2--2h3p2--2--2-2--2--2-2-2--2--2--2h3p2------|
G#|----3--3-3--3--3-3-3--3-3-----------0--0-0--0--0-0-0--0----------------|
D#|-----------------------------------------------------------------------|

   P.M.....................                 
D#|-----------------------------------------------------------------------|
A#|-----------------------------------------------------------------------|
F#|-----------------------------------------------------------------------|
C#|----2--2-2--2--2-2-2--2---2--2h3p2--5~-----------------------5---------|
G#|----2--2-2--2--2-2-2--2-3-----------5~-----------------------5---------|
D#|----0--0-0--0--0-0-0--0-------------3~-----------------------3---------|

[Chorus 2](Distorted)   (1.38 - 2.06)
   No Guitar

   (2.06 - 2.13)
D#|-0-10-0-0-5-0-0-8-0-0-5-0-0-3-0-1---0-10-0-0-5-0-0-8-0-0-5-0-0-3-0-1-0-----|
A#|---------------------------------3------------------------------------3/5~-|
F#|---------------------------------------------------------------------------|
C#|---------------------------------------------------------------------------|
G#|---------------------------------------------------------------------------|
D#|---------------------------------------------------------------------------|

[Verse 3] (Clean)   (2.13 – 2.25)
   No guitar

   (2.25 - 2.36)
D#|-------12--15--12--17--12--15--12------12--15--12--17--12--15--12----------|
A#|---13------------------------------13--------------------------------------|
F#|---------------------------------------------------------------------------|
C#|---------------------------------------------------------------------------|
G#|---------------------------------------------------------------------------|
D#|---------------------------------------------------------------------------|

D#|--------12--15--12--17--12--15--12--10-------------------------------------|
A#|----12---------------------------------------------------------------------|
F#|---------------------------------------------------------------------------|
C#|---------------------------------------------------------------------------|
G#|---------------------------------------------------------------------------|
D#|---------------------------------------------------------------------------|

[Chorus 3] (Distorted)
   (2.36 - 3.03)

    No Guitar
   (3.03 - 3.10)
D#|-------0-10-0-0-5-0-0-8-0-0-5-0-0-3-0-1-0----------|
A#|-----------------------------------------3---------|
F#|---------------------------------------------------|
C#|---------------------------------------------------|
G#|---------------------------------------------------|
D#|---------------------------------------------------|

Thanks for checking out the tab!
As I said at the top if you have any corrections or comments then feel free to let me know :)
Enjoy!

************************************

| h  Hammer-on
| p  Pull-off
| ~  Vibrato
| \  Slide down
| /  Slide up
| PM Palm mute

************************************
Suggest correction
comments
print report bad tab
3 comments total.
0 reply
riseagainst&pr 52 Mar 30, 2013 05:26 PM

awesome tab dude. thank you

-1 reply
kya14 10 Jul 30, 2014 03:44 AM

didn't like this contribution

0 reply
anthony1001 250 Jul 31, 2014 04:34 PM

fair enough.

guest
You may want to rate the tab now too:
select rating
Wanna post a correction for this tab? Suggest correction