Oops, an error
Loading. Please wait.

For Baltimore Tab

version 4
version 4

Whole song

Interactive

622 views 1 this week
no commentswrite comment
1 2 3 4 5
please rate
add to favorites
launch autoscroll
font size
0
reset
how to read this tab
guitar tuner
Tab Pro tools
  • play this tab
  • loop segment
  • change instrument
  • show fretboard
  • metronome
×
Best way to learn
"For Baltimore"
Autoscroll
slow
fast
+/-
esc
set tempo
stop
Difficulty
novice
All Time Low - For Baltimore
From Album: Don’t Panic
Tuning: ½ step down from standard tuning


- - - - - Intro  0.00-0.23

Guitar 1 (Lead, electric guitar)

e--------1--2h-3h-2p------1--2h-3h-2p------1--2h-3h-2p----3---------|
B-----1----------------1--------------------------------------------|
G----------------------2--------------------------------------------|
D-----2----------------2----------------2---------------------------|
A-----3---------------------------------2-----------------2---------|
E---------------------------------------------------------3---------|
        C                  Am                   Em                    G

(                                       X2                                              )

Guitar 2 (Acoustic)

e------------------------------------------------------3------3---3-3---3-3----|
B-----1---------------1--------------------------------------------------------|
G---------------------2--------------------------------------------------------|
D-----2---------------2-----------------2--------------------------------------|
A-----3---------------------------------2--------------2------2---2-2---2-2----|
E------------------------------------------------------3------3---3-3---3-3----|
      C              Am                Em                               G


e--------------------------------------------------------------------3---|
B----1---1---1-1---1-1----1---1---1-1---1-1------------------------------|
G-------------------------2---2---2-2---2-2------------------------------|
D----2---2---2-2---2-2----2---2---2-2---2-2----2---2---2-2---2-2---------|
A----3---3---3-3---3-3-------------------------2---2---2-2---2-2-----2---|
E--------------------------------------------------------------------3---|
                C                       Am                      Em                  G

- - - - - Verse 0.24-0.46

Guitar 1

e-----------------------------------------------------------------------|
B------------------------------------1--1-1--1--1-1-1--1----------------|
G----5--5-5--5--5-5-5--5-------------2--2-2--2--2-2-2--2----------------|
D----5--5-5--5--5-5-5--5----2-3h2p1--2--2-2--2--2-2-2--2---2-3h2p1------|
A----3--3-3--3--3-3-3--3-3----------------------------------------------|
E-----------------------------------------------------------------------|
        (A) PALM MUTED                   (B) PALM MUTED

e-----------------------------------------------------------------------|
B-----------------------------------------------------------------------|
G-----------------------------------------------------------------------|
D----2--2-2--2--2-2-2--2----2-3h2p1--5--5-5--5--5-5-5--5--5-5-5--5------|
A----2--2-2--2--2-2-2--2-3-----------5--5-5--5--5-5-5--5--5-5-5--5------|
E------------------------------------3--3-3--3--3-3-3--3--3-3-3--3------|
         (C) PALM MUTED                 (D) PALM MUTED

Then part A, B, C again and ends on:

D---5--(let ring)--------------5-----|
A---5--(let ring)--------------5-----|
E---5--(let ring)--------------5-----|



Guitar 2 = just the same as guitar 1, with exception of the D--2-3h2p1--  riff

- - - - - Chorus 0.47-1.15

Guitar 1

e-----------------------------------------------------------------------|
B----------------------------------1--1-1--1-1-1--1-1-1--1-1-1----------|
G----5--5-5--5-5-5--5-5-5--5-5-5---2--2-2--2-2-2--2-2-2--2-2-2----------|
D----5--5-5--5-5-5--5-5-5--5-5-5---2--2-2--2-2-2--2-2-2--2-2-2----------|
A----3--3-3--3-3-3--3-3-3--3-3-3----------------------------------------|
E-----------------------------------------------------------------------|

e-----------------------------------------------------------------------|
B-----------------------------------------------------------------------|
G-----------------------------------------------------------------------|
D----2--2-2--2-2-2--2-2-2--2-2-2---5--5-5--5-5-5--5-5-5--5-5-5----------|
A----2--2-2--2-2-2--2-2-2--2-2-2---5--5-5--5-5-5--5-5-5--5-5-5----------|
E----------------------------------3--3-3--3-3-3--3-3-3--3-3-3----------|

(                               X2                              )

Ends on:

e-----------------------------------------------------------------------|
B-----------------------------------------------------------------------|
G---5---0-5--0-5--0-5--4-3----------------------------------------------|
D---5---0-5--0-5--0-5--4-3----------------------------------------------|
A---5---0-5--0-5--0-5--4-3----------------------------------------------|
E-----------------------------------------------------------------------|
  (            X2          )



Guitar 2 = same as guitar 1

- - - - - Verse 2 1.16-1.38

1.16-1.23 =  bass guitar only

1.23-1.38 = same as verse for both guitars

Guitar 1 & 2 = the same as verse 1

- - - - - Chorus 1.39-2.13= the same for both guitars

- - - - - Bridge 2.14-2.36 = same as intro, for both guitars

- - - - - Chorus/Outro 2.37-3.06 = same as chorus, for both guitars

NOTE= during the song, a third guitar that fills in temporary is heard. Its only heard 
in the studio version of the song, and not duing live performances, so it is not tabbed.

--------------------------------THE END--------------------------------------------
comments
We did not receive enough feedback on this tab! Please rate:
print report bad tab
1 2 3 4 5
I want to post or [tab]
guest
You may want to rate the tab now too:
select rating
Please do not post tabs as comments. Select "correction" instead!