Oops, an error
Loading. Please wait.

Forget About It Bass Tab

version 1
version 1

Whole song

Interactive

3,339 views 6 this week
no commentswrite comment
1 2 3 4 5
accurate
x 5
add to favorites
launch autoscroll
font size
0
reset
guitar tuner
Tab Pro tools
  • play this tab
  • loop segment
  • change instrument
  • show fretboard
  • metronome
×
Best way to learn
"Forget About It"
Autoscroll
slow
fast
+/-
esc
set tempo
stop
Contributor
Tuning
D A D G B E
-------------------------------------------------------------------------------
			     FORGET ABOUT IT - All Time Low.
-------------------------------------------------------------------------------

Tabbed By : mariewong.


Tuning: Drop D.


Intro [00:03]

G|-----------------------------|
D|-----------------------------|
A|-----------------------------|
D|--\2(x24)---2-2-2-2---6-6-6--|



Verse [00:11]

G|----------------------------|
D|----------------------------|
A|----------------------------|   [x2]
D|--2(x24)---2-2-2-2-2-6-6-6--|

G|------------------------------------------------|
D|------------------------------------------------|
A|-----------------------4(x8)--3(x8)--5-5-5-5-2--|
D|--2(x8)--1(x8)--0(x8)---------------------------|



Chorus [00:36]

G|-----------------------------------------------|
D|-----------------------------------------------|
A|--------------4---4-4-----------0---2-----2-2--|
D|--2---2-2---2-----------6-6---6-------2--------|

G|-----------------------------------------------|
D|-----------------------------------------------|
A|--2-4---4-4-----0---0-0---0-2-2-2-2-2-2-2-2-2--|
D|--------------6--------------------------------|



Pre-verse [00:50]

G|-----------------------------|
D|-----------------------------|
A|-----------------------------|
D|--\2(x24)---2-2-2-2---6-6-6--|



Verse [00:58]

G|----------------------------|
D|----------------------------|
A|----------------------------|   [x2]
D|--2(x24)---2-2-2-2-2-6-6-6--|

G|------------------------------------------------|
D|------------------------------------------------|
A|-----------------------4(x8)--3(x8)--5-5-5-5-2--|
D|--2(x8)--1(x8)--0(x8)---------------------------|



Chorus [01:24]

G|-----------------------------------------------|
D|-----------------------------------------------|
A|--------------4---4-4-----------0---2-----2-2--|
D|--2---2-2---2-----------6-6---6-------2--------|

G|-----------------------------------------------|
D|-----------------------------------------------|
A|--2-4---4-4-----0---0-0---0-2-2-2-2-2-2-2-2-2--|
D|--------------6--------------------------------|



Solo [01:38]

G|-----------------------------------------------|
D|-----------------------------------------------|
A|--------------4---4-4-----------0---2-----2-2--|
D|--2---2-2---2-----------6-6---6-------2--------|

G|------------------------------------|
D|------------------------------------|
A|--2-4---4-4-----0---0-0---0-2(x16)--|
D|--------------6---------------------|

G|---------|
D|---------|
A|--6-6-6--|
D|---------|



Chorus [02:09]

G|-----------------------------------------------|
D|-----------------------------------------------|
A|--------------4---4-4-----------0---2-----2-2--|
D|--2---2-2---2-----------6-6---6-------2--------|

G|-----------------------------------------------|
D|-----------------------------------------------|
A|--2-4---4-4-----0---0-0---0-2-2-2-2-2-2-2-2-2--|
D|--------------6--------------------------------|

G|-------------------------------------------------|
D|-------------------------------------------------|
A|----------------4---4-4-----------0---2-----2-2--|
D|--2-2---2-2---2-----------6-6---6-------2--------|

G|-----------------------------------------------|
D|-----------------------------------------------|
A|--2-4---4-4-----0---0-0---0-2-2-2-2-2-2-2-2-2--|
D|--------------6--------------------------------|

G|-----------------------------|
D|-----------------------------|
A|-----------------------------|
D|--\2(x24)---2-2-2-2---6-6-6--|





| /  slide up
| \  slide down
| h  hammer-on
| p  pull-off
| ~  vibrato
| +  harmonic
| x  Mute note
===============================================================================
comments
print report bad tab
I want to post or [tab]
guest
You may want to rate the tab now too:
select rating
Please do not post tabs as comments. Select "correction" instead!