Oops, an error
Loading. Please wait.

Forget About It Tab

version 1
version 1

Whole song

Interactive

23,488 views 9 this week
1 commentread comment
1 2 3 4 5
excellent!
x 15
add to favorites
launch autoscroll
font size
0
reset
how to read this tab
guitar tuner
Autoscroll
slow
fast
+/-
esc
set tempo
stop
Help us to improve Ultimate-Guitar.com Take our survey!
×
Contributor
Difficulty
intermediate
|-------------------------------------------------------------------------------
                             Forget About It - All Time Low
-------------------------------------------------------------------------------

Tuning: Standard

Intro:
e|-----------------------------------------------------------------|
B|-----------------------------------------------------------------|
G|-9-9-9-9-9-9-9-9-9-9-9-9-9-9-9-9-9-9-9-9-9-9-9-9-9-9-9-9---------|
D|-9-9-9-9-9-9-9-9-9-9-9-9-9-9-9-9-9-9-9-9-9-9-9-9-9-9-9-9-6-6-6---|
A|-7-7-7-7-7-7-7-7-7-7-7-7-7-7-7-7-7-7-7-7-7-7-7-7-7-7-7-7-6-6-6---|
E|---------------------------------------------------------4-4-4---|

Lead plays:
e|----------------------------------------|
B|----------------------------------------|
G|----------------------------------------|
D|----6--7--6-------------------6--7--6---|
A|-7-----------7-----7-------7------------|
E|----------------7-----------------------|

Verse:
e|-------------------------------------------------------------------------------|
B|-------------------------------------------------------------------------------|
G|--9----------------------------------------------------------------7-7-7-7-4---|
D|--9(28x)-6-6-6-Play this twice, then-9-----9-----7-----7-----5-----7-7-7-7-4---|
A|--7------6-6-6-----------------------7(8x)-6(8x)-5(8x)-4(8x)-3(8x)-5-5-5-5-2---|
E|---------4-4-4-----------------------------------------------------------------|
PM  .                                  .     .     .     .

Chorus:
e|---------------------------------------------------------------------------------------------|
B|---------------------------------------------------------------------------------------------|
G|-9---9-9---4-6---6-6---------------9-9---4-4---4-6---6-6-------------------------------------|
D|-9---9-9---4-6---6-6---6-6---7-7---9-9---4-4---4-6---6-6---6-7---7-7---7-9-9-9-9-9-9-9-9-9---|
A|-7---7-7---2-4---4-4---7-7---7-7---7-7---2-2---2-4---4-4---7-7---7-7---7-9-9-9-9-9-9-9-9-9---|
E|-----------------------4-4---5-5---------------------------4-5---5-5---5-7-7-7-7-7-7-7-7-7---|

Repeat Intro

Repeat Verse

Repeat Chorus

Bridge (Rhythm):
e|----------------------------------------------------------------------------|
B|----------------------------------------------------------------------------|
G|-9---9---9-9---4-6---6-6---------------------4-4---4-6---6-6----------------|
D|-9---9---9-9---4-6---6-6---6-6---7-7---2-2---4-4---4-6---6-6---6-7-7-7--7---|
A|-7---7---7-7---2-4---4-4---7-7---7-7---2-2---2-2---2-4---4-4---7-7-7-7--7---|
E|---------------------------4-4---5-5---0-0---------------------4-5-5-5--5---|

e|----------------------------------------------------------|
B|----------------------------------------------------------|
G|----------------------------------------------------------|
D|-7-9-9-9-9-9-9-9-9-9-9-9-9-9-9-9-9------6-6-6-9------9\---|
A|-7-9-9-9-9-9-9-9-9-9-9-9-9-9-9-9-7(28x)-6-6-6-7(24x)-7\---|
E|-5-7-7-7-7-7-7-7-7-7-7-7-7-7-7-7--------4-4-4-------------|
                                   .            .
Bridge (Lead/Solo)
e|--------------12----------12----------------------------------------------|
B|--------12-12-12-12-12-12-12-12-------------------------------------------|
G|-8-9-9--9---9-----9--9--9-----9-9-9-8-7-6----------------------------/12--|
D|------------------------------------------10109-6--7-9---------6----------|
A|-------------------------------------------------------7---7-9---9--------|
E|-------------------------------------------------------------------------=|

e|-12p0-11p0-9p0-7p0-7h9p7p0-------7h9p7p0---------7h9p7p0-----|
B|---------------------------7-------------7h9p7p0---------7---|
G|-------------------------------------------------------------|
D|-------------------------------------------------------------|
A|-------------------------------------------------------------|
E|-------------------------------------------------------------|

e|---------------7-7-9-9-11-11-12-12-14-14---|
B|-7-7-9-9-10-10-----------------------------|
G|-------------------------------------------|
D|-------------------------------------------|
A|-------------------------------------------|
E|-------------------------------------------|

Repeat first part of Verse

Repeat Chorus 2x

End with Intro

Enjoy!
comments
print report bad tab
1 comment total.
0 reply
alltimelow64 867 wrote on June 12 2011, 12:07 am

Intro should be:

d-----7-6--------
a---7-----7---7-
E-7---------7--

Looks good otherwise

I want to post or [tab]
guest
You may want to rate the tab now too:
select rating
Please do not post tabs as comments. Select "correction" instead!