Oops, an error
Loading. Please wait.

Get Down On Your Knees And Tell Me You Love Me bass

version 1
version 1

Whole song

Interactive

826 views 12 this week
no commentswrite comment
1 2 3 4 5
1 last vote to show rating
add to favorites
×
Save as Personal and add changes to this tab that will be seen only by you. Learn more ›
×
You can save this tab as Personal to edit and correct it or add notes. All changes will be seen only by you. Learn more »
launch autoscroll
font size
0
reset
guitar tuner
edit
Autoscroll
slow
fast
+/-
esc
set tempo
stop
Author
Difficulty
Get down on your knees and tell me you love me - All time low

 
tuneing - standard E A D G


verse 1

G|--------------------------|----|--------------------------|-----|
D|--------------------------|----|--------------------------|-----|
A|--3--------3-----3--3--0--|----|--1--------1-----1--1-----|--/5-|
E|--------------------------|----|-----------------------3--|-----|


--------------------------|----|--------------------------|
--------------------------|----|--------------------------|
--3--------3-----3--3--0--|----|--1--------1-----1--1-----|
--------------------------|----|-----------------------3--|


--------------------------|----|--------------------------|-----|
--------------------------|----|--------------------------|-----|
--3--------3-----3--3--0--|----|--1--------1-----1--1-----|--/5-|
--------------------------|----|-----------------------3--|-----|


--------------------------|----|--------------------------|
--------------------------|----|--------------------------|
--3--------3-----3--3--0--|----|--1--------1-----1--1-----|
--------------------------|----|-----------------------3--|

        
--------------------------|----|--------------------------|
--------------------------|----|--------------------------|
--3--------3-----3--3--0--|----|--1--------1-----1--1-----|
--------------------------|----|-----------------------3--|


--------------------------|
--------------------------|
-----------------------3--|
-----3--3--3--3--3--3-----|



chorus
--------------------------|--------------------------|
--------------------------|--------------------------|
--3--3--3--3--3--3--3--3--|--3--3--3--3--3--3--3-----|
--------------------------|-----------------------3--|


--------------------------|--------------------------|
--------------------------|--------------------------|
--------------------------|--------------------------|
--3--3--3--3--3--3--3--3--|--3--3--3--3--3--3--3--4--|


--------------------------|--------------------------|
--------------------------|--------------------------|
--------------------------|-----------------------6--|
--4--4--4--4--4--4--4--4--|--4--4--4--4--4--4--4-----|


--------------------------|--------------------------|
--------------------------|--------------------------|
--6--6--6--6--6--6--6-----|-----------------------3--|
-----------------------6--|--6--6--6--6--6--6--6-----|


--------------------------|--------------------------|
--------------------------|--------------------------|
--3--3--3--3--3--3--3--3--|--3--3--3--3--3--3--3-----|
--------------------------|-----------------------3--|


--------------------------|--------------------------|
--------------------------|--------------------------|
--------------------------|--------------------------|
--3--3--3--3--3--3--3--3--|--3--3--3--3--3--3--3--4--|


--------------------------|--------------------------|
--------------------------|--------------------------|
--------------------------|-----------------------6--|
--4--4--4--4--4--4--4--4--|--4--4--4--4--4--4--4-----|


--------------------------|--------------------------|
--------------------------|--------------------------|
--6--6--6--6--6--6--6-----|--------------------------|
-----------------------3--|--3--3--3--3--3--3--3--3--|




verse 2
--------------------------|----|--------------------------|
--------------------------|----|--------------------------|
--3--------3-----3--3--0--|----|--1--------1-----1--1-----|
--------------------------|----|-----------------------3--|


--------------------------|----|--------------------------|
--------------------------|----|--------------------------|
--3--------3-----3--3--0--|----|--1--------1-----1--1-----|
--------------------------|----|--------------------------|


------------------------|
------------------------|
-------------5----------|
--6-----5---------6-----|


--------------------------|----|--------------------------|
--------------------------|----|--------------------------|
--3--------3-----3--3--0--|----|--1--------1-----1--1-----|
--------------------------|----|-----------------------3--|

       
--------------------------|----|--------------------------|
--------------------------|----|--------------------------|
--3--------3-----3--3--0--|----|--1--------1-----1--1-----|
--------------------------|----|-----------------------3--|

--------------------------|
--------------------------|
--------------------------|
-----3--3--3--3--3--3--3--|




chorus
--------------------------|--------------------------|
--------------------------|--------------------------|
--3--3--3--3--3--3--3--3--|--3--3--3--3--3--3--3--3--|
--------------------------|--------------------------|


--------------------------|--------------------------|
--------------------------|--------------------------|
--------------------------|--------------------------|
--3--3--3--3--3--3--3--3--|--3--3--3--3--3--3--3--3--|


--------------------------|--------------------------|
--------------------------|--------------------------|
--------------------------|--------------------------|
--4--4--4--4--4--4--4--4--|--4--4--4--4--4--4--4--4--|


--------------------------|--------------------------|
--------------------------|--------------------------|
--6--6--6--6--6--6--6--6--|--------------------------|
--------------------------|--6--6--6--6--6--6--6--6--|


--------------------------|--------------------------|
--------------------------|--------------------------|
--3--3--3--3--3--3--3--3--|--3--3--3--3--3--3--3--3--|
--------------------------|--------------------------|


--------------------------|--------------------------|
--------------------------|--------------------------|
--------------------------|--------------------------|
--3--3--3--3--3--3--3--3--|--3--3--3--3--3--3--3--3--|


--------------------------|--------------------------|
--------------------------|--------------------------|
--------------------------|--------------------------|
--4--4--4--4--4--4--4--4--|--4--4--4--4--4--4--4--4--|


--------------------------|--------------------------|
--------------------------|--------------------------|
--6--6--6--6--6--6--6--6--|--------------------------|
--------------------------|--3--3--3--3--3--3--3--3--|




solo 
--------------------------|--------------------------|
--------------------------|--------------------------|
--------------------------|--------------------------|
--4--4--------------4--4--|--------------------------|


--------------------------|--------------------------|
--------------------------|--------------------------|
--6--6--------------6-----|--------------------------|
-----------------------4--|--------------------------|


--------------------------|--------------------------|
--------------------------|--------------------------|
--------------------------|--------------------------|
--4--4--------------4--4--|--------------------------|


--------------------------|--------------------------|
--------------------------|--------------------------|
--------------------------|--------------------------|
--6--6--------------6--6--|--6--6--6--6--6--6--6--6--|


--------------------------|--------------------------|
--------------------------|--------------------------|
--------------------------|--------------------------|
--4--4--4--4--4--4--4--4--|--4--4--4--4--4--4--4--4--|


--------------------------|--------------------------|
--------------------------|--------------------------|
--6--6--6--6--6--6--6--6--|--------------------------|
--------------------------|--6--6--6--6--6--6--6--6--|


--------------------------|--------------------------|
--------------------------|--------------------------|
--------------------------|--------------------------|
--4--4--4--4--4--4--4--4--|--4--4--4--4--4--4--4--4--|


--------------------------|--------------------------|
--------------------------|--------------------------|
--------------------------|--------------------------|
--3--3--3--3--3--3--3--3--|--3--3--3--3--3--3--3--3--|


-------------------|
-------------------|
--3----------------|
-------------------|



chorus
--------------------------|--------------------------|
--------------------------|--------------------------|
--3--3--3--3--3--3--3--3--|--3--3--3--3--3--3--3--3--|
--------------------------|--------------------------|


--------------------------|--------------------------|
--------------------------|--------------------------|
--------------------------|--------------------------|
--3--3--3--3--3--3--3--3--|--3--3--3--3--3--3--3--3--|


--------------------------|--------------------------|
--------------------------|--------------------------|
--------------------------|--------------------------|
--4--4--4--4--4--4--4--4--|--4--4--4--4--4--4--4--4--|


--------------------------|--------------------------|
--------------------------|--------------------------|
--6--6--6--6--6--6--6--6--|--------------------------|
--------------------------|--6--6--6--6--6--6--6--6--|



--------------------------|--------------------------|
--------------------------|--------------------------|
--3--3--3--3--3--3--3--3--|--3--3--3--3--3--3--3--3--|
--------------------------|--------------------------|


--------------------------|--------------------------|
--------------------------|--------------------------|
--------------------------|--------------------------|
--3--3--3--3--3--3--3--3--|--3--3--3--3--3--3--3--3--|


--------------------------|--------------------------|
--------------------------|--------------------------|
--------------------------|--------------------------|
--4--4--4--4--4--4--4--4--|--4--4--4--4--4--4--4--4--|


--------------------------|--------------------------|
--------------------------|--------------------------|
--6--6--6--6--6--6--6--6--|--------------------------|
--------------------------|--3--3--3--3--3--3--3--3--|



--------------------------|--------------------------|
--------------------------|--------------------------|
--3--3--3--3--3--3--3--3--|--3--3--3--3--3--3--3--3--|
--------------------------|--------------------------|


--------------------------|--------------------------|
--------------------------|--------------------------|
--------------------------|--------------------------|
--3--3--3--3--3--3--3--3--|--3--3--3--3--3--3--3--3--|


--------------------------|--------------------------|
--------------------------|--------------------------|
--------------------------|--------------------------|
--4--4--4--4--4--4--4--4--|--4--4--4--4--4--4--4--4--|


--------------------------|--------------------------|
--------------------------|--------------------------|
--6--6--6--6--6--6--6--6--|--------------------------|
--------------------------|--3--3--3--3--3--3--3--3--|



end       
--------------------------|----|--------------------------|
--------------------------|----|--------------------------|
--3--------3-----3--3--0--|----|--1--------1-----1--1-----|
--------------------------|----|-----------------------3--|



/ = slide up



            
            
Suggest correction
Creating personal tab
Creating personal tab
You can edit any tab online and save it as your Personal.

You can edit, replace or remove any tab part or add personal notes – all changes will be seen only by you.

Personal tabs can be accessed anytime from any device, even offline.
Learn more »
Give kudos to tab author, rate the tab!
1 2 3 4 5
comments
print report bad tab
guest
You may want to rate the tab now too:
select rating
Wanna post a correction for this tab? Suggest correction