Oops, an error
Loading. Please wait.

Girls A Straight-Up Hustler Bass Tab

version 1
version 1

Whole song

Interactive

8,154 views 1 this week
5 commentsread comments
1 2 3 4 5
excellent!
x 14
add to favorites
launch autoscroll
font size
0
reset
guitar tuner
Tab Pro tools
  • play this tab
  • loop segment
  • change instrument
  • show fretboard
  • metronome
×
Best way to learn
"Girls A Straight-up Hustler"
Autoscroll
slow
fast
+/-
esc
set tempo
stop
Contributor
Tabbed by: Hanson
Tuning: Standard



G|---------------------------------------------------------------|
D|---------------------------------------------------------------|
A|--7---7---6---6---2---2---3---3---7---7---6---6----------------|
E|--------------------------------------------------3---3---3---2|

G|---------------------------------------------------------------------------------------|
D|---------------------------------------------------------------------------------------|
A|--77777777--66666666\22222222--33333333/77777777--66666666--------------10-10-10-9999--|
E|------------------------------------------------------------333333333/-----------------|
  

G|---------------------------------------------------------------------------------------|
D|------------------------------------9-10-9---------------------------------------------|
A|--77777777--66666666--------------10------10-9---77777777--66666666--------------------|
E|----------------------77777777--8------------------------------------3333333333333333--|
  

G|---------------------------------------------------------------|
D|---------------------------------------------------------------|
A|--77777777--66666666\22222222--33333333/77777777--66666666-----|
E|------------------------------------------------------------3~~|


(0:46)
G|-----------------------------------------------------------------------|
D|-----------------------------------------------------------------------|
A|--------------------5555555555555555--3333333333333333--5555555555555--|
E|--3333333333333333-----------------------------------------------------|


(0:57)
G|-------------------------------------------------------------|
D|-------------------------------------------------------------|
A|--------------------5555555555555555--3333333333333333--5~~--|
E|--3333333333333333-------------------------------------------|


(1:08)
G|--------------------------------------|
D|--------------------------------------|
A|--7~~--6~~-------3~~/7~~--6~~---------|
E|------------7~~----------------3~~~~--|

(1:19)
G|----------------------------------------|
D|----------------------------------------|
A|--77--66--22--33--77--66------5--5------|
E|--------------------------33---33-3-33--|

(1:30)
G|--------------------------------------------------------|
D|--------------------------------------------------------|
A|--77--7766--6622--2233--33/77--7766--66-----------------|
E|-----------------------------------------33-333-333333--|

(1:41)
G|----------------------------------------------------------------|
D|-----------------------9-10-9-----------------------------------|
A|--7777--6666---------10------10-9---7777--6666------------------|
E|--------------7777--8---------------------------33333333333333--|

(1:52)
G|-----------------------------------------------------------------------|
D|-----------------------------------------------------------------------|
A|--------------------5555555555555555--3333333333333333--5555555555555--|
E|--3333333333333333-----------------------------------------------------|

(2:02)
G|-----------------------------------------------------------------------|
D|-----------------------------------------------------------------------|
A|--------------------5555555555555555--3333333333333333--5555555555555--|
E|--3333333333333333-----------------------------------------------------|

(2:14)
G|---------------------------------------------------------------------------------------|
D|--------------------------------------------------------------------------9-10-9-------|
A|--77777777--66666666--22222222--33333333/77777777--66666666-------------10-------10-9--|
E|-------------------------------------------------------------77777777--8---------------|

(2:25) (x2)
G|-----------------------------------------|
D|-----------------------------------------|
A|--77777777--66666666\22222222--33333333--|
E|-----------------------------------------|

(2:36)
G|----------------------------------------|
D|---------------------------------5--44--|
A|--77777777--66666666\22222222--33-33----|
E|----------------------------------------|

(2:42)
G|------------------------------------------|
D|------------------------------------------|
A|--77777777/9--6666666\22222222--33333333--|
E|------------------------------------------|

(2:47)
G|-----------------------------------------------------------------------|
D|-----------------------------------------------------------------------|
A|--------------------5555555555555555--3333333333333333--5555555555555--|
E|--3333333333333333-----------------------------------------------------|

(2:58)
G|-------------------------------------------------------------|
D|-------------------------------------------------------------|
A|--------------------5555555555555555--3333333333333333--5~~--|
E|--3333333333333333-------------------------------------------|

G|---------------------------------------------------------------|
D|---------------------------------------------------------------|
A|--7---7---6---6---2---2---3---3---7---7---6---6----------------|
E|--------------------------------------------------3---3---3---2|

G|-----------------------------------------------------|
D|-----------------------------------------------------|
A|--7---7---6---6---2---2---3---3---7---7---6---6------|
E|--------------------------------------------------3~~|


End.
comments
print report bad tab
5 comments total. Showing first comments.
0 reply
someperson wrote on June 12 2007, 01:24 pm

Amazing job! *5 Stars*

0 reply
mracornbuddy wrote on June 29 2007, 10:02 pm

damn good jod :D

0 reply
chrisjenks wrote on August 8 2008, 08:18 am

very good tab! 5 stars!
however i have a sneaky feeling that the intro should be played an octave higher

G|--9---9---8---8---4---4---5---5---9---9---8---8----------------|
D|--------------------------------------------------5---5---5---4|
A|---------------------------------------------------------------|
E|---------------------------------------------------------------|

instead of

G|---------------------------------------------------------------|
D|---------------------------------------------------------------|
A|--7---7---6---6---2---2---3---3---7---7---6---6----------------|
E|--------------------------------------------------3---3---3---2|

what do you think?

I want to post or [tab]
guest
You may want to rate the tab now too:
select rating
Please do not post tabs as comments. Select "correction" instead!