Oops, an error
Loading. Please wait.

Girls A Straight-Up Hustler Tab

version 1
version 1

Intro

Whole song

Interactive

11,444 views 3 this week
4 commentsread comments
1 2 3 4 5
x 8
add to favorites
launch autoscroll
font size
0
reset
how to read this tab
guitar tuner
Autoscroll
slow
fast
+/-
esc
set tempo
stop
Help us to improve Ultimate-Guitar.com Take our survey!
×
Author
Difficulty
novice
heres the intro to this song it is 100% correct 

|-----------------------------------|
|-------8--8--8--8----3--3---3--3---|
|-----0--0--0--0-----0--0---0--0----|
|-----------------------------------|
|---7--7--6--6------------3--3------|
|-----------------3--3--------------|

|------------------------------------|
|-------8--8--8--8----3--3--3--3--3--|
|-----0--0--0--0-----0--0--0--0--0---|
|------------------------------------|
|---7--7--6--6-----------------------|
|-----------------3--3---2--2--0-----|

very simple thats all it is

www.alltimelow.com
Suggest correction
comments
print report bad tab
4 comments total. Showing first comments.
0 reply
tommycore 10 Jul 03, 2006 09:49 PM

holy someone actually tabbed out all time low!!! great tab it sounds exactly like the intro for the girls a straight up hustler

0 reply
MDude911 10 Sep 01, 2006 11:05 AM

wow that was simple.

0 reply
fueledbyvictory 10 Oct 29, 2008 04:18 PM

i find this difficult.
i find it sad that i find this difficult.

guest
You may want to rate the tab now too:
select rating
Wanna post a correction for this tab? Suggest correction