Oops, an error
Loading. Please wait.

Girls A Straight-Up Hustler Bass Tab

version 2
version 2

Whole song

Interactive

1,745 views 1 this week
no commentswrite comment
1 2 3 4 5
excellent!
x 3
add to favorites
launch autoscroll
font size
0
reset
guitar tuner
Autoscroll
slow
fast
+/-
esc
set tempo
stop
Help us to improve Ultimate-Guitar.com Take our survey!
×
Author
Difficulty
novice
Artist: All Time Low
Song: The Girls A Straight-Up Hustler

Tabbed By: Mykee Way
e-mail: mikaelrutter@gmail.com

First tab please enjoy Im sure its all correct


Intro: Guitar

Verse (0:11)
G|---------------------------------------------------------------------------------|
D|--22222222--11111111----------------------22222222--11111111-------------5-5-4444|
A|----------------------22222222--33333333-----------------------------------------|
E|--------------------------------------------------------------33333333-----------|

G|----------------------------------0-4-5-4-0----------------------------------------|
D|--22222222--11111111-----------------------4--22222222--11111111-------------------|
A|----------------------22222222--33-------------------------------------------------|
E|-----------------------------------------------------------------3333333333333333--|

G|-----------------------------------------------------------------|
D|--22222222--11111111----------------------22222222--11111111-----|
A|----------------------22222222--33333333-------------------------|
E|--------------------------------------------------------------3--|

Chorus (0:46)
G|--------------------------------------------------------------------------|
D|--------------------------------------------------------------------------|
A|--------------------5555555555555555--3333333333333333--5555555555555555--|
E|--3333333333333333--------------------------------------------------------|

G|---------------------------------------------------------------------------|
D|---------------------------------------------------------------------------|
A|--------------------5555555555555555--3333333333333333--5------------------|
E|--3333333333333333---------------------------------------------------------|

Interlude 1 (1:08)
G|--------------------------------------|
D|--------------------------------------|
A|--7----6---\2----3---/7----6----------|
E|--------------------------------3-----|

G|--------------------------------------------------|
D|--22---11-------------22---11---------5----5----5-|
A|------------22---33-------------------------------|
E|--------------------------------33---3-3--3-3--3-3|

G|-------------------------------------------------------|
D|--22--2211--11------------22--2211--11------5----5---5-|
A|--------------22--2233--33-----------------------------|
E|--------------------------------------33---3-3--3-3-3-3|

G|-------------------------------0-4-5-4-0---------------------------------------|
D|--2-2-2-2--1-1-1-1----------------------4--2-2-2-2--1-1-1-1--------------------|
A|--------------------2-2-2-2--3-------------------------------------------------|
E|-------------------------------------------------------------3333333333333333--|

Chorus (1:52)
G|--------------------------------------------------------------------------|
D|--------------------------------------------------------------------------|
A|--------------------5555555555555555--3333333333333333--5555555555555555--|
E|--3333333333333333--------------------------------------------------------|

G|---------------------------------------------------------------------------|
D|---------------------------------------------------------------------------|
A|--------------------5555555555555555--3333333333333333--5555555555555555---|
E|--3333333333333333---------------------------------------------------------|

Interlude 2 (2:14)
G|-------------------------------------------------------------------------0-4-5-4-0-|
D|--22222222--11111111----------------------22222222--11111111----------------------4|
A|----------------------22222222--33333333---------------------22222222--33----------|
E|-----------------------------------------------------------------------------------|

G|------------------------------------------|
D|--22222222--11111111----------------------|
A|----------------------22222222--33333333--|
E|------------------------------------------| x2

G|------------------------------------------|
D|--22222222--11111111----------------5-44--|
A|----------------------22222222--3333-3----|
E|------------------------------------------|

G|------------------------------------------|
D|--22222222--11111111----------------------|
A|----------------------22222222--33333333--|
E|------------------------------------------|

Chorus (2:47)
G|---------------------------------------------------------------------------|
D|---------------------------------------------------------------------------|
A|--------------------5555555555555555--3333333333333333--5555555555555555---|
E|--3333333333333333---------------------------------------------------------|

G|-------------------------------------------------------------|
D|-------------------------------------------------------------|
A|--------------------5555555555555555--3333333333333333--5----|
E|--3333333333333333-------------------------------------------|

Outro: Guitar

End


Suggest correction
What's this?
You can suggest a correction to this tab. Community and Mods will review your correction and vote to approve or reject it.
comments
We did not receive enough feedback on this tab! Please rate:
print report bad tab
1 2 3 4 5
guest
You may want to rate the tab now too:
select rating
Please do not post tabs as comments. Select "correction" instead!