Oops, an error
Loading. Please wait.

Girls A Straight-Up Hustler Tab

version 2
version 2

Whole song

Interactive

2,173 views 1 this week
6 commentsread comments
1 2 3 4 5
please rate
add to favorites
launch autoscroll
font size
0
reset
how to read this tab
guitar tuner
Autoscroll
slow
fast
+/-
esc
set tempo
stop
Help us to improve Ultimate-Guitar.com Take our survey!
×
Author
This is my take on this song. I basically learned all this from a video on youtube, but
wasn't in tab form, so I thought I'd do it. This my first tab, so let me know what you
Thanks- Erikk

Intro
e----------------------------------------|
A-7----7----6----6----2----2----3----3---|
D----------------------------------------|
G--0----0----0----0----0----0----0----0--|
B---8----8----8----8----3----3----3----3-|
E----------------------------------------|

e---------------------3----3----3----2---|
A-7----7----6----6-----------------------|
D----------------------------------------|
G--0----0----0----0----0----0----0----0--|
B---8----8----8----8----3----3----3----3-|
E----------------------------------------|
                     /\
             Right here is where it will stop and will go into the chorus.

Repeat this all the way until the chorus!
On the last one right before the chorus end it with a Chord like this.
e--------------|
A-------6------|
D--------------|
G-------0------|
B-------8------|
E--------------|


Chorus-

e---xx---3333333333333333----------------------------------------------------|
A---xx---5555555555555555-5555555555555555-3333333333333333-6666666666666666-|
D---xx---5555555555555555-7777777777777777-5555555555555555-7777777777777777-|
G---xx--------------------7777777777777777-5555555555555555-8888888888888888-|
B---xx-----------------------------------------------------------------------|
E---xx-----------------------------------------------------------------------|x2

On the second time around in the chorus end it with a chord like this-
e------|
A--5---|
D--7---|
G--7---|
B------|
E------|

Interlude riff thingy- This is basically the same as the intro but with a different 
pattern,

e-------------------------------------3-|
A-7-----6-----2-----3-----7----6------2-|
D-------------------------------------0-|
G--0-0---0-0---0-0---0-0---0-0--0-0---0-|
B---8-----8-----3-----3-----8----8----0-|
E-------------------------------------4-|

End the riff on a G-Major

Now, on this next part, you can either play both Alex and Jack's part, or just Alex's.
you do both all you have to do is mute the A string with your index finger (or whatever
is easiest) and strum 4 times and then play the chord four times. If you wanna keep it 
and simple And just play Alex's part only play the chords right after the muted A
in the song, you don't have tp play them.. Real simple.

Here is both Alex and Jack put together. Like i said, if you wanna keep it simple,
the four A notes before the chord.
e-----------------------------------------------------------------------------------|
A-xxxx7777----xxxx6666----xxxx2222----xxxx3333----xxxx7777----xxxx6666-----333333---|
D-----xxxx--------xxxx--------xxxx--------xxxx--------xxxx--------xxxx-----xxxxxx---|
G-----0000--------0000--------0000--------0000--------0000--------0000-----000000---|
B-----8888--------8888--------3333--------3333--------8888--------8888-----333333---|
E-----------------------------------------------------------------------------------|

Then, you just single those exact same chords out again.

e-------------------------------------------------------------------|
A-7-7-7-7-6-6-6-6-2-2-2-2-3-3-3-3-7-7-7-7-6-6-6-6-3-3-3-3-3-3-3-3---|
D-------------------------------------------------------------------|
G-0-0-0-0-0-0-0-0-0-0-0-0-0-0-0-0-0-0-0-0-0-0-0-0-0-0-0-0-0-0-0-0---|
B-8-8-8-8-8-8-8-8-3-3-3-3-3-3-3-3-8-8-8-8-8-8-8-8-3-3-3-3-3-3-3-3---|
E-------------------------------------------------------------------|  x2

Do that twice and then do the chorus again.

e--------3333333333333333-----------------------------------------------------0-|
A--------5555555555555555-5555555555555555-3333333333333333-6666666666666666--2-|
D--------5555555555555555-7777777777777777-5555555555555555-7777777777777777--3-|
G-------------------------7777777777777777-5555555555555555-8888888888888888--0-|
B-----------------------------------------------------------------------------0-|
E-----------------------------------------------------------------------------0-|

Right there at the end of the chorus end in an E-Minor. Then the bridge


e----------------------------|
A--7---9--10--12-------------|
D----------------------------|
G--9--11--12--14-------------|          These are only the chords, you can
B----------------------------|          figure out the strumming.
E----------------------------|

Then repeat the chorus again

e--------3333333333333333----------------------------------------------------|
A--------5555555555555555-5555555555555555-3333333333333333-6666666666666666-|
D--------5555555555555555-7777777777777777-5555555555555555-7777777777777777-|
G-------------------------7777777777777777-5555555555555555-8888888888888888-|
B----------------------------------------------------------------------------|
E----------------------------------------------------------------------------|

Then do this riff for the outro-

e-------------------------------------3-|
A-7-----6-----2-----3-----7----6------2-|
D-------------------------------------0-|
G--0-0---0-0---0-0---0-0---0-0--0-0---0-|
B---8-----8-----3-----3-----8----8----0-|
E-------------------------------------4-|

There ya go guys, if you saw any mistake tell em and ill try to fix them. Rate please!
Suggest correction
Give kudos to tab author, rate the tab!
1 2 3 4 5
comments
print report bad tab
6 comments total. Showing first comments.
0 reply
Hurleysurf 10 wrote on June 17 2009, 07:02 pm

nice tab man! really helped.

0 reply
jiggy182 92 wrote on August 22 2009, 07:11 pm

why the hell is your tab upside down

0 reply
ibmx08 10 wrote on December 4 2009, 12:54 pm

yea i think you got it upside down

guest
You may want to rate the tab now too:
select rating
Wanna post a correction for this tab? Suggest correction