Oops, an error
Loading. Please wait.

Girls A Straight-Up Hustler Tab

version 3
version 3

Whole song

Interactive

422 views 1 this week
no commentswrite comment
1 2 3 4 5
please rate
add to favorites
launch autoscroll
font size
0
reset
how to read this tab
guitar tuner
Tab Pro tools
  • play this tab
  • loop segment
  • change instrument
  • show fretboard
  • metronome
×
Best way to learn
"Girls A Straight-up Hustler"
Autoscroll
slow
fast
+/-
esc
set tempo
stop
Contributor
               THE GIRL'S A STRAIGHT-UP HUSTLER
                    As recorded by All Time Low
                  From the 2006 EP PUT UP OR SHUT UP


Transcribed by Teal Dragon

Music by All Time Low

 
This is my first tab by an actual band. I made this on power tab and
then exported it as an ASCII file. Sorry if it's a little difficult 
to read at times. The letters above the numbers represent the
note duration. W - whole; H - half; Q - quarter; E - 8th; S - 16th;
The full legend for symbols is at the bottom of the tab. Otherwise this
is a great song by an even greater band. One of my favorites. Enjoy :)


Gtr I (E A D G B E) - 'Alex (clean)'
Gtr II (E A D G B E) - 'Jack (clean)'
Gtr III (E A D G B E) - 'Alex (dist.)'
Gtr IV (E A D G B E) - 'Jack (dist.)'


 Intro
  Q=171
 4/4
 
Intro

Song starts out with Alex's intro

Gtr I
  E E Q  E E Q    E E Q  E E Q    E E Q  E E Q    E E Q  E E Q
|---------------|---------------|---------------|----------------|
|-----8------8--|-----8------8--|-----3------3--|-----3------3---|
|---0------0----|---0------0----|---0------0----|---0------0-----|
|---------------|---------------|---------------|----------------|
|-7------7------|-6------6------|-2------2------|-3------3-------|
|---------------|---------------|---------------|----------------|


  E E Q  E E Q    E E Q  E E Q    E E Q  E E Q    E E Q  E E Q
|---------------|---------------|---------------|---------------|
|-----8------8--|-----8------8--|-----3------3--|-----3------3--|
|---0------0----|---0------0----|---0------0----|---0------0----|
|---------------|---------------|---------------|---------------|
|-7------7------|-6------6------|---------------|---------------|
|---------------|---------------|-3------3------|-3------2------|


This is when Alex starts singing and Jack starts playing.    

Gtr I
    E E Q  E E Q    E E Q  E E Q    E     E Q  E E Q    E     E Q  E E Q
||----------------|---------------|-------------------|--------------------|
||o-----8------8--|-----8------8--|---------3------3--|---------3------3---|
||----0------0----|---0------0----|-------0------0----|-------0------0-----|
||----------------|---------------|-------------------|--------------------|
||o-7------7------|-6------6------|-2----------2------|-3----------3-------|
||----------------|---------------|-------------------|--------------------|
|
|   Gtr II
|   Q   Q  Q   Q    Q   Q  Q   Q    S  E.   Q  Q   Q    S  E.   Q  Q   Q
||--7------7------|-7-------------|-------------------|--------------------|
||o-----8------8--|-----8--7---8--|-8S10----8--7---8--|-8S10----8--7-------|
||----------------|---------------|-------------------|----------------8---|
||----------------|---------------|-------------------|--------------------|
||o---------------|---------------|-------------------|--------------------|
||----------------|---------------|-------------------|--------------------|


  E E Q  E E Q    E E Q  E E Q    E E Q   E E Q    E E Q   E E Q
|---------------|---------------|----------------|-----------------||
|-----8------8--|-----8------8--|-----3-------3--|-----3-------3--o||
|---0------0----|---0------0----|---0-------0----|---0-------0-----||
|---------------|---------------|----------------|-----------------||
|-7------7------|-6------6------|----------------|----------------o||
|---------------|---------------|-3-------3------|-3-------2-------||
|                                                                    repeat
| Q   Q  Q   Q    Q   Q  Q   Q    Q   Q   Q   Q    Q   Q   Q   Q     once
|--------7------|--------7------|--------10------|--------10-------||
|-----8------8--|-----8------8--|-----8-------8--|-----8-------8--o||
|-9-------------|-8-------------|-7--------------|-7---------------||
|---------------|---------------|----------------|-----------------||
|---------------|---------------|----------------|----------------o||
|---------------|---------------|----------------|-----------------||

Same as above except slightly different ending

  E E Q  E E Q    E E Q  E E Q    E     E Q  E E Q    E     E Q  E E Q
|---------------|---------------|-------------------|-------------------|
|-----8------8--|-----8------8--|---------3------3--|---------3------3--|
|---0------0----|---0------0----|-------0------0----|-------0------0----|
|---------------|---------------|-------------------|-------------------|
|-7------7------|-6------6------|-2----------2------|-3----------3------|
|---------------|---------------|-------------------|-------------------|
|
| Q   Q  Q   Q    Q   Q  Q   Q    S  E.   Q  Q   Q    S  E.   Q  Q   Q
|-7------7------|-7-------------|-------------------|-------------------|
|-----8------8--|-----8--7---8--|-8S10----8--7---8--|-8S10----8--7------|
|---------------|---------------|-------------------|----------------8--|
|---------------|---------------|-------------------|-------------------|
|---------------|---------------|-------------------|-------------------|
|---------------|---------------|-------------------|-------------------|


                                                    Gtr III
  E E Q  E E Q    E E Q  E E Q    W          +H     E E Q
|---------------|---------------|----------|--------x-x----|
|-----8------8--|-----8------8--|-3--------|-(3)----x-x----|
|---0------0----|---0------0----|-0--------|-(0)----x-x----|
|---------------|---------------|----------|--------x-x----|
|-7------7------|-6------6------|-2--------|-(2)----x-x----|
|---------------|---------------|----------|--------x-x----|
|
|                                                   Gtr IV
| Q   Q  Q   Q    Q   Q  Q   Q    W          +H     E E Q
|--------7------|--------7------|----------|--------x-x----|
|-----8------8--|-----8------8--|-3--------|-(3)----x-x----|
|-9-------------|-8-------------|-0--------|-(0)----x-x----|
|---------------|---------------|----------|--------x-x----|
|---------------|---------------|-2--------|-(2)----x-x----|
|---------------|---------------|----------|--------x-x----|

Chorus for Alex's parts shouldn't be too hard. 
Jack's parts might be a little difficult to hear, but they should be right.

 Chorus
  E E E E E E E E    E  E  E  E  E  E  E  E
|-----------------|-------------------------|
|-----------------|-------------------------|
|-----------------|-------------------------|
|-5-5-5-5-5-5-5-5-|--5--5--5--5--5--5--5--5-|
|-5-5-5-5-5-5-5-5-|--5--5--5--5--5--5--5--5-|
|-3-3-3-3-3-3-3-3-|--3--3--3--3--3--3--3--3-|
|
| E E E E E E E E    E  E  E  E  E  E  E  E
|-----------------|-------------------------|
|-----------------|-------------------------|
|-7-7-7-7-7-7-7-7-|-11-11-11-11-12-12-12-12-|
|-x-x-x-x-x-x-x-x-|--x--x--x--x--x--x--x--x-|
|-5-5-5-5-5-5-5-5-|--9--9--9--9-10-10-10-10-|
|-----------------|-------------------------|


  E E E E E E E E    E  E  E  E  E  E  E  E
|-----------------|-------------------------|
|-----------------|-------------------------|
|-7-7-7-7-7-7-7-7-|--7--7--7--7--7--7--7--7-|
|-7-7-7-7-7-7-7-7-|--7--7--7--7--7--7--7--7-|
|-5-5-5-5-5-5-5-5-|--5--5--5--5--5--5--5--5-|
|-----------------|-------------------------|
|
| E E E E E E E E    E  E  E  E  E  E  E  E
|-----------------|-------------------------|
|-----------------|-------------------------|
|-7-7-7-7-7-7-7-7-|-12-12-12-12-11-11-11-11-|
|-x-x-x-x-x-x-x-x-|--x--x--x--x--x--x--x--x-|
|-5-5-5-5-5-5-5-5-|-10-10-10-10--9--9--9--9-|
|-----------------|-------------------------|


   E  E  E  E  E  E  E  E    E  E  E  E  E  E  E  E
|-------------------------|-------------------------|
|-------------------------|-------------------------|
|--5--5--5--5--5--5--5--5-|--5--5--5--5--5--5--5--5-|
|--5--5--5--5--5--5--5--5-|--5--5--5--5--5--5--5--5-|
|--3--3--3--3--3--3--3--3-|--3--3--3--3--3--3--3--3-|
|-------------------------|-------------------------|
|
|  E  E  E  E  E  E  E  E    E  E  E  E  E  E  E  E
|-------------------------|-------------------------|
|-------------------------|-------------------------|
|-12-12-12-12-12-12-12-12-|-11-11-11-11-11-11-11-11-|
|--x--x--x--x--x--x--x--x-|--x--x--x--x--x--x--x--x-|
|-10-10-10-10-10-10-10-10-|--9--9--9--9--9--9--9--9-|
|-------------------------|-------------------------|


  E E E E E E E E   E E E E E E E E
|-----------------|-----------x-x-x-|
|-----------------|-----------x-x-x-|
|-8-8-8-8-8-8-8-8-|-7-7-7-7-7-x-x-x-|
|-7-7-7-7-7-7-7-7-|-7-7-7-7-7-x-x-x-|
|-6-6-6-6-6-6-6-6-|-5-5-5-5-5-x-x-x-|
|-----------------|-----------x-x-x-|
|
| E E E E E E E E   E E E E E E E E
|-----------------|-----------x-x-x-|
|-----------------|-----------x-x-x-|
|-8-8-8-8-8-8-8-8-|-7-7-7-7-7-x-x-x-|
|-x-x-x-x-x-x-x-x-|-x-x-x-x-x-x-x-x-|
|-6-6-6-6-6-6-6-6-|-5-5-5-5-5-x-x-x-|
|-----------------|-----------x-x-x-|


   E  E  E  E  E  E  E  E    E  E  E  E  E  E  E  E
|-------------------------|-------------------------|
|-------------------------|-------------------------|
|-------------------------|-------------------------|
|--5--5--5--5--5--5--5--5-|--5--5--5--5--5--5--5--5-|
|--5--5--5--5--5--5--5--5-|--5--5--5--5--5--5--5--5-|
|--3--3--3--3--3--3--3--3-|--3--3--3--3--3--3--3--3-|
|
|  E  E  E  E  E  E  E  E    E  E  E  E  E  E  E  E
|-------------------------|-------------------------|
|-------------------------|-------------------------|
|-12-12-12-12-12-12-12-12-|-11-11-11-11-11-11-11-11-|
|--x--x--x--x--x--x--x--x-|--x--x--x--x--x--x--x--x-|
|-10-10-10-10-10-10-10-10-|--9--9--9--9--9--9--9--9-|
|-------------------------|-------------------------|


   E  E  E  E  E  E  E  E    E  E  E  E  E  E  E  E
|-------------------------|-------------------------|
|-------------------------|-------------------------|
|--7--7--7--7--7--7--7--7-|--7--7--7--7--7--7--7--7-|
|--7--7--7--7--7--7--7--7-|--7--7--7--7--7--7--7--7-|
|--5--5--5--5--5--5--5--5-|--5--5--5--5--5--5--5--5-|
|-------------------------|-------------------------|
|
|  E  E  E  E  E  E  E  E    E  E  E  E  E  E  E  E
|-------------------------|-------------------------|
|-------------------------|-------------------------|
|-14-14-14-14-14-14-14-14-|-12-12-12-12-11-11-11-11-|
|--x--x--x--x--x--x--x--x-|--x--x--x--x--x--x--x--x-|
|-12-12-12-12-12-12-12-12-|-10-10-10-10--9--9--9--9-|
|-------------------------|-------------------------|


   E  E  E  E  E  E  E  E    E  E  E  E  E  E  E  E   W          W
|-------------------------|-------------------------|----------|------|
|-------------------------|-------------------------|----------|------|
|--5--5--5--5--5--5--5--5-|--5--5--5--5--5--5--5--5-|-8--------|-7----|
|--5--5--5--5--5--5--5--5-|--5--5--5--5--5--5--5--5-|-7--------|-7----|
|--3--3--3--3--3--3--3--3-|--3--3--3--3--3--3--3--3-|-6--------|-5----|
|-------------------------|-------------------------|----------|------|
|
|  E  E  E  E  E  E  E  E    E  E  E  E  E  E  E  E   W          W
|-------------------------|-------------------------|----------|------|
|-------------------------|-------------------------|----------|------|
|-12-12-12-12-12-12-12-12-|-11-11-11-11-11-11-11-11-|-8--------|-7----|
|--x--x--x--x--x--x--x--x-|--x--x--x--x--x--x--x--x-|-x--------|-x----|
|-10-10-10-10-10-10-10-10-|--9--9--9--9--9--9--9--9-|-6--------|-5----|
|-------------------------|-------------------------|----------|------|


 Interlude

This part can be played by rhythm, lead, or both. 
It should be with a clean sound.
 
 Gtr I
  Q  Q  Q  Q    Q  Q  Q  Q    Q  Q  Q  Q    Q  Q  Q  Q
|-------------|-------------|-------------|-------------|
|-------8-----|-------8-----|-------3-----|-------3-----|
|----0-----0--|----0-----0--|----0-----0--|----0-----0--|
|-------------|-------------|-------------|-------------|
|-7-----------|-6-----------|-2-----------|-3-----------|
|-------------|-------------|-------------|-------------|


  Q  Q  Q  Q    Q  Q  Q  Q    W          +W
|-------------|-------------|----------|--------|
|-------8-----|-------8-----|-3--------|-(3)----|
|----0-----0--|----0-----0--|-0--------|-(0)----|
|-------------|-------------|-x--------|--------|
|-7-----------|-6-----------|-2--------|-(2)----|
|-------------|-------------|----------|--------|


 This should be pretty self-explanatory. Alex only plays 2 eighth 
notes while Jack plays 4 palm muted bass notes and then 4 full chords.

Gtr III
  PM|                PM|                PM|                PM|
  E E H.             E E H.             E E H.             E E H.
|------------------|------------------|------------------|------------------
|------------------|------------------|------------------|------------------
|-0-0--------------|-0-0--------------|-0-0--------------|-0-0--------------
|-x-x--------------|-x-x--------------|-x-x--------------|-x-x--------------
|-7-7--------------|-6-6--------------|-2-2--------------|-3-3--------------
|------------------|------------------|------------------|------------------|
| Gtr IV
| PM-----|           PM-----|           PM-----|           PM-----|
| E E E  E E E E E   E E E  E E E E E   E E E  E E E E E   E E E  E E E E E
|------------------|------------------|------------------|------------------
|----------8-8-8-8-|----------8-8-8-8-|----------3-3-3-3-|----------3-3-3-3-
|----------0-0-0-0-|----------0-0-0-0-|----------0-0-0-0-|----------0-0-0-0-
|----------x-x-x-x-|----------x-x-x-x-|----------x-x-x-x-|----------x-x-x-x-
|-7-7-7--7-7-7-7-7-|-6-6-6--6-6-6-6-6-|-2-2-2--2-2-2-2-2-|-3-3-3--3-3-3-3-3-
|------------------|------------------|------------------|------------------


  PM|                PM|                PM|      PM|
  E E H.             E E H.             E E H    E E   E E E E E E E E
|------------------|------------------|--------------|-----------------|
|------------------|------------------|--------------|-----------------|
|-0-0--------------|-0-0--------------|-0-0------0-0-|---0-0-0-0-0-0-0-|
|-x-x--------------|-x-x--------------|-x-x------x-x-|---x-x-x-x-x-x-x-|
|-7-7--------------|-7-7--------------|-x-x------x-x-|---x-x-x-x-x-x-x-|
|------------------|------------------|-3-3------3-3-|---3-3-3-3-3-3-3-|
|
| PM-----|           PM-----|           PM|      PM|
| E E E  E E E E E   E E E  E E E E E   E E H    E E   E E E E E E E E
|------------------|------------------|--------------|-----------------|
|----------8-8-8-8-|----------8-8-8-8-|--------------|-----------------|
|----------0-0-0-0-|----------0-0-0-0-|-0-0------0-0-|---0-0-0-0-0-0-0-|
|----------x-x-x-x-|----------x-x-x-x-|-x-x------x-x-|---x-x-x-x-x-x-x-|
|-7-7-7--7-7-7-7-7-|-6-6-6--6-6-6-6-6-|-x-x------x-x-|---x-x-x-x-x-x-x-|
|------------------|------------------|-3-3------3-3-|---3-3-3-3-3-3-3-|


For this both guitars play the same thing which is one eighth note 
chord and then one eighth note rest and so on in the same pattern. 
Try to really make sure that your guitar is complety 
quiet during the rests for best results.
 
Verse
  Gtrs III, IV
  E E E E E E E E   E E E E E E E E   E E E E E E E E   E E E E E E E E
|-----------------|-----------------|-----------------|-----------------|
|-8---8---8---8---|-8---8---8---8---|-3---3---3---3---|-3---3---3---3---|
|-0---0---0---0---|-0---0---0---0---|-0---0---0---0---|-0---0---0---0---|
|-x---x---x---x---|-x---x---x---x---|-x---x---x---x---|-x---x---x---x---|
|-7---7---7---7---|-6---6---6---6---|-2---2---2---2---|-3---3---3---3---|
|-----------------|-----------------|-----------------|-----------------|


  E E E E E E E E   E E E E E E E E   E E E E E E E E   E E E E E E E E
|-----------------|-----------------|-----------------|-----------------|
|-8---8---8---8---|-8---8---8---8---|-3---3---3---3---|-3---3---3---3---|
|-0---0---0---0---|-0---0---0---0---|-0---0---0---0---|-0---0---0---0---|
|-x---x---x---x---|-x---x---x---x---|-x---x---x---x---|-x---x---x---x---|
|-7---7---7---7---|-6---6---6---6---|-2---2---2---2---|-2---2---2---2---|
|-----------------|-----------------|-----------------|-----------------|


  E E E E E E E E   E E E E E E E E   E E E E E E E E   E E E E E E E E
|-----------------|-----------------|-----------------|-----------------|
|-8---8---8---8---|-8---8---8---8---|-3---3---3---3---|-3---3---3---3---|
|-0---0---0---0---|-0---0---0---0---|-0---0---0---0---|-0---0---0---0---|
|-x---x---x---x---|-x---x---x---x---|-x---x---x---x---|-x---x---x---x---|
|-7---7---7---7---|-6---6---6---6---|-2---2---2---2---|-3---3---3---3---|
|-----------------|-----------------|-----------------|-----------------|


  E E E E E E E E   E E E E E E E E   E E E E E E E E   E E E E E E Q
|-----------------|-----------------|-----------------|----------------|
|-8---8---8---8---|-8---8---8---8---|-3-3-3-3-3-3-3-3-|-3-3-3-3-3-3----|
|-0---0---0---0---|-0---0---0---0---|-0-0-0-0-0-0-0-0-|-0-0-0-0-0-0----|
|-x---x---x---x---|-x---x---x---x---|-x-x-x-x-x-x-x-x-|-x-x-x-x-x-x----|
|-7---7---7---7---|-6---6---6---6---|-2-2-2-2-2-2-2-2-|-3-3-3-3-3-3----|
|-----------------|-----------------|-----------------|----------------|


Chorus again with a slight variation when Alex is going to end 
the line "choke on the drama that makes me want to" .

Chorus
  Gtr III
  E E E E E E E E    E  E  E  E  E  E  E  E
|-----------------|-------------------------|
|-----------------|-------------------------|
|-----------------|-------------------------|
|-5-5-5-5-5-5-5-5-|--5--5--5--5--5--5--5--5-|
|-5-5-5-5-5-5-5-5-|--5--5--5--5--5--5--5--5-|
|-3-3-3-3-3-3-3-3-|--3--3--3--3--3--3--3--3-|
|
| Gtr IV
| E E E E E E E E    E  E  E  E  E  E  E  E
|-----------------|-------------------------|
|-----------------|-------------------------|
|-7-7-7-7-7-7-7-7-|-11-11-11-11-12-12-12-12-|
|-x-x-x-x-x-x-x-x-|--x--x--x--x--x--x--x--x-|
|-5-5-5-5-5-5-5-5-|--9--9--9--9-10-10-10-10-|
|-----------------|-------------------------|


  E E E E E E E E    E  E  E  E  E  E  E  E
|-----------------|-------------------------|
|-----------------|-------------------------|
|-7-7-7-7-7-7-7-7-|--7--7--7--7--7--7--7--7-|
|-7-7-7-7-7-7-7-7-|--7--7--7--7--7--7--7--7-|
|-5-5-5-5-5-5-5-5-|--5--5--5--5--5--5--5--5-|
|-----------------|-------------------------|
|
| E E E E E E E E    E  E  E  E  E  E  E  E
|-----------------|-------------------------|
|-----------------|-------------------------|
|-7-7-7-7-7-7-7-7-|-12-12-12-12-11-11-11-11-|
|-x-x-x-x-x-x-x-x-|--x--x--x--x--x--x--x--x-|
|-5-5-5-5-5-5-5-5-|-10-10-10-10--9--9--9--9-|
|-----------------|-------------------------|


   E  E  E  E  E  E  E  E    E  E  E  E  E  E  E  E
|-------------------------|-------------------------|
|-------------------------|-------------------------|
|--5--5--5--5--5--5--5--5-|--5--5--5--5--5--5--5--5-|
|--5--5--5--5--5--5--5--5-|--5--5--5--5--5--5--5--5-|
|--3--3--3--3--3--3--3--3-|--3--3--3--3--3--3--3--3-|
|-------------------------|-------------------------|
|
|  E  E  E  E  E  E  E  E    E  E  E  E  E  E  E  E
|-------------------------|-------------------------|
|-------------------------|-------------------------|
|-12-12-12-12-12-12-12-12-|-11-11-11-11-11-11-11-11-|
|--x--x--x--x--x--x--x--x-|--x--x--x--x--x--x--x--x-|
|-10-10-10-10-10-10-10-10-|--9--9--9--9--9--9--9--9-|
|-------------------------|-------------------------|


  E E E E E E E E   E E E E E E E E
|-----------------|-----------------|
|-----------------|-----------------|
|-8-8-8-8-8-8-8-8-|-7-7-7-7-7-7-7-7-|
|-7-7-7-7-7-7-7-7-|-7-7-7-7-7-7-7-7-|
|-6-6-6-6-6-6-6-6-|-5-5-5-5-5-5-5-5-|
|-----------------|-----------------|
|                                     Variation
| E E E E E E E E   E E E E E E E E   Here
|-----------------|-----------------|
|-----------------|-----------------|
|-8-8-8-8-8-8-8-8-|-7-7-7-7-7-7-7-7-|
|-x-x-x-x-x-x-x-x-|-x-x-x-x-x-x-x-x-|
|-6-6-6-6-6-6-6-6-|-5-5-5-5-5-5-5-5-|
|-----------------|-----------------|


   E  E  E  E  E  E  E  E    E  E  E  E  E  E  E  E
|-------------------------|-------------------------|
|-------------------------|-------------------------|
|-------------------------|-------------------------|
|--5--5--5--5--5--5--5--5-|--5--5--5--5--5--5--5--5-|
|--5--5--5--5--5--5--5--5-|--5--5--5--5--5--5--5--5-|
|--3--3--3--3--3--3--3--3-|--3--3--3--3--3--3--3--3-|
|
|  E  E  E  E  E  E  E  E    E  E  E  E  E  E  E  E
|-------------------------|-------------------------|
|-------------------------|-------------------------|
|-12-12-12-12-12-12-12-12-|-11-11-11-11-11-11-11-11-|
|--x--x--x--x--x--x--x--x-|--x--x--x--x--x--x--x--x-|
|-10-10-10-10-10-10-10-10-|--9--9--9--9--9--9--9--9-|
|-------------------------|-------------------------|


   E  E  E  E  E  E  E  E    E  E  E  E  E  E  E  E
|-------------------------|-------------------------|
|-------------------------|-------------------------|
|--7--7--7--7--7--7--7--7-|--7--7--7--7--7--7--7--7-|
|--7--7--7--7--7--7--7--7-|--7--7--7--7--7--7--7--7-|
|--5--5--5--5--5--5--5--5-|--5--5--5--5--5--5--5--5-|
|-------------------------|-------------------------|
|
|  E  E  E  E  E  E  E  E    E  E  E  E  E  E  E  E
|-------------------------|-------------------------|
|-------------------------|-------------------------|
|-14-14-14-14-14-14-14-14-|-12-12-12-12-11-11-11-11-|
|--x--x--x--x--x--x--x--x-|--x--x--x--x--x--x--x--x-|
|-12-12-12-12-12-12-12-12-|-10-10-10-10--9--9--9--9-|
|-------------------------|-------------------------|


   E  E  E  E  E  E  E  E    E  E  E  E  E  E  E  E
|-------------------------|-------------------------|
|-------------------------|-------------------------|
|--5--5--5--5--5--5--5--5-|--5--5--5--5--5--5--5--5-|
|--5--5--5--5--5--5--5--5-|--5--5--5--5--5--5--5--5-|
|--3--3--3--3--3--3--3--3-|--3--3--3--3--3--3--3--3-|
|-------------------------|-------------------------|
|
|  E  E  E  E  E  E  E  E    E  E  E  E  E  E  E  E
|-------------------------|-------------------------|
|-------------------------|-------------------------|
|-12-12-12-12-12-12-12-12-|-11-11-11-11-11-11-11-11-|
|--x--x--x--x--x--x--x--x-|--x--x--x--x--x--x--x--x-|
|-10-10-10-10-10-10-10-10-|--9--9--9--9--9--9--9--9-|
|-------------------------|-------------------------|


  E E E E E E E E   E E E E E E E E
|-----------------|-----------------|
|-----------------|-----------------|
|-8-8-8-8-8-8-8-8-|-7-7-7-7-7-7-7-7-|
|-7-7-7-7-7-7-7-7-|-7-7-7-7-7-7-7-7-|
|-6-6-6-6-6-6-6-6-|-5-5-5-5-5-5-5-5-|
|-----------------|-----------------|
|
| E E E E E E E E   E E E E E E E E
|-----------------|-----------------|
|-----------------|-----------------|
|-8-8-8-8-8-8-8-8-|-7-7-7-7-7-7-7-7-|
|-x-x-x-x-x-x-x-x-|-x-x-x-x-x-x-x-x-|
|-6-6-6-6-6-6-6-6-|-5-5-5-5-5-5-5-5-|
|-----------------|-----------------|


Not much to explain here but be sure to hit those scratch 
chords with alot of accentation. 

Breakdown
  Gtrs III, IV
  W          +W           +W           +H     +E  E Q
|----------|------------|------------|------------x-x--|
|----------|------------|------------|------------x-x--|
|----------|------------|------------|------------x-x--|
|-2--------|-(2)--------|-(2)--------|-(2)----(2)-x-x--|
|-2--------|-(2)--------|-(2)--------|-(2)----(2)-x-x--|
|-0--------|-(0)--------|-(0)--------|-(0)----(0)-x-x--|


  W          +W           +W           +W
|----------|------------|------------|--------|
|----------|------------|------------|--------|
|----------|------------|------------|--------|
|-2--------|-(2)--------|-(2)--------|-(2)----|
|-2--------|-(2)--------|-(2)--------|-(2)----|
|-0--------|-(0)--------|-(0)--------|-(0)----|

It's best to legato slide from the 7xx8 to the 9xx10 chord 
at the begining of the second and fourth measures.   

Bridge
    Gtr III
    E E E E E E E E    E  E  E E  E E  E E
||------------------|----------------------|
||o-8---8---8---8---|--8s10-10---10---10---|
||--x---x---x---x---|--x--x--x----x----x---|
||--x---x---x---x---|--x--x--x----x----x---|
||o-7---7---7---7---|--7s=9--9----9----9---|
||------------------|----------------------|
|
|   Gtr IV
|   W                  W
||------------------|----------------------|
||o-----------------|----------------------|
||--9---------------|-11-------------------|
||--x---------------|--x-------------------|
||o-7---------------|--9-------------------|
||------------------|----------------------|


   E E E E E E E E    E  E  E E  E E  E E   3x
|------------------|------------------------||
|--8---8---8---8---|--8s10-10---10---10----o||
|--x---x---x---x---|--x--x--x----x----x-----||
|--x---x---x---x---|--x--x--x----x----x-----||
|--7---7---7---7---|--7s=9--9----9----9----o||
|------------------|------------------------||
|                                              Play this
|  W                  W                     3x   thrice
|------------------|------------------------||
|------------------|-----------------------o||
|-12---------------|-14---------------------||
|--x---------------|--x---------------------||
|-10---------------|-12--------------------o||
|------------------|------------------------||

Slightly different end the fourth time through.

  E E E E E E E E    E  E  E E  E E  E E
|-----------------|----------------------|
|-8---8---8---8---|--8s10-10---10---10---|
|-x---x---x---x---|--x--x--x----x----x---|
|-x---x---x---x---|--x--x--x----x----x---|
|-7---7---7---7---|--7s=9--9----9----9---|
|-----------------|----------------------|
|
| W                  W
|-----------------|----------------------|
|-----------------|----------------------|
|-9---------------|-11-------------------|
|-x---------------|--x-------------------|
|-7---------------|--9-------------------|
|-----------------|----------------------|


   E E E E E E E E     E  E  E  E  E  E  E  E
|------------------|--------------------------|
|--8---8---8---8---|-/10-10-10-10-10-10-10-10-|
|--x---x---x---x---|---x--x--x--x--x--x--x--x-|
|--x---x---x---x---|---x--x--x--x--x--x--x--x-|
|--7---7---7---7---|--/9--9--9--9--9--9--9--9-|
|------------------|--------------------------|
|
|  W                   E  E  E  E  E  E  E  E
|------------------|--------------------------|
|------------------|--------------------------|
|-12---------------|--16-16-16-16-16-16-16-16-|
|--x---------------|---x--x--x--x--x--x--x--x-|
|-10---------------|--14-14-14-14-14-14-14-14-|
|------------------|--------------------------|

Again another variation near the same part as the last chorus.
 
Chorus
  Gtr III
  E E E E E E E E    E  E  E  E  E  E  E  E
|-----------------|-------------------------|
|-----------------|-------------------------|
|-----------------|-------------------------|
|-5-5-5-5-5-5-5-5-|--5--5--5--5--5--5--5--5-|
|-5-5-5-5-5-5-5-5-|--5--5--5--5--5--5--5--5-|
|-3-3-3-3-3-3-3-3-|--3--3--3--3--3--3--3--3-|
|
| Gtr IV
| E E E E E E E E    E  E  E  E  E  E  E  E
|-----------------|-------------------------|
|-----------------|-------------------------|
|-7-7-7-7-7-7-7-7-|-11-11-11-11-12-12-12-12-|
|-x-x-x-x-x-x-x-x-|--x--x--x--x--x--x--x--x-|
|-5-5-5-5-5-5-5-5-|--9--9--9--9-10-10-10-10-|
|-----------------|-------------------------|


  E E E E E E E E    E  E  E  E  E  E  E  E
|-----------------|-------------------------|
|-----------------|-------------------------|
|-7-7-7-7-7-7-7-7-|--7--7--7--7--7--7--7--7-|
|-7-7-7-7-7-7-7-7-|--7--7--7--7--7--7--7--7-|
|-5-5-5-5-5-5-5-5-|--5--5--5--5--5--5--5--5-|
|-----------------|-------------------------|
|
| E E E E E E E E    E  E  E  E  E  E  E  E
|-----------------|-------------------------|
|-----------------|-------------------------|
|-7-7-7-7-7-7-7-7-|-12-12-12-12-11-11-11-11-|
|-x-x-x-x-x-x-x-x-|--x--x--x--x--x--x--x--x-|
|-5-5-5-5-5-5-5-5-|-10-10-10-10--9--9--9--9-|
|-----------------|-------------------------|


   E  E  E  E  E  E  E  E    E  E  E  E  E  E  E  E
|-------------------------|-------------------------|
|-------------------------|-------------------------|
|--5--5--5--5--5--5--5--5-|--5--5--5--5--5--5--5--5-|
|--5--5--5--5--5--5--5--5-|--5--5--5--5--5--5--5--5-|
|--3--3--3--3--3--3--3--3-|--3--3--3--3--3--3--3--3-|
|-------------------------|-------------------------|
|
|  E  E  E  E  E  E  E  E    E  E  E  E  E  E  E  E
|-------------------------|-------------------------|
|-------------------------|-------------------------|
|-12-12-12-12-12-12-12-12-|-11-11-11-11-11-11-11-11-|
|--x--x--x--x--x--x--x--x-|--x--x--x--x--x--x--x--x-|
|-10-10-10-10-10-10-10-10-|--9--9--9--9--9--9--9--9-|
|-------------------------|-------------------------|


  E E E E E E E E   E E E E E E E E
|-----------------|---------x-x-x-x-|
|-----------------|---------x-x-x-x-|
|-8-8-8-8-8-8-8-8-|-7-7-7-7-x-x-x-x-|
|-7-7-7-7-7-7-7-7-|-7-7-7-7-x-x-x-x-|
|-6-6-6-6-6-6-6-6-|-5-5-5-5-x-x-x-x-|
|-----------------|---------x-x-x-x-|
|                                     Variation 
| E E E E E E E E   E E E E E E E E   Here
|-----------------|---------x-x-x-x-|
|-----------------|---------x-x-x-x-|
|-8-8-8-8-8-8-8-8-|-7-7-7-7-x-x-x-x-|
|-x-x-x-x-x-x-x-x-|-x-x-x-x-x-x-x-x-|
|-6-6-6-6-6-6-6-6-|-5-5-5-5-x-x-x-x-|
|-----------------|---------x-x-x-x-|


   E  E  E  E  E  E  E  E    E  E  E  E  E  E  E  E
|-------------------------|-------------------------|
|-------------------------|-------------------------|
|-------------------------|-------------------------|
|--5--5--5--5--5--5--5--5-|--5--5--5--5--5--5--5--5-|
|--5--5--5--5--5--5--5--5-|--5--5--5--5--5--5--5--5-|
|--3--3--3--3--3--3--3--3-|--3--3--3--3--3--3--3--3-|
|
|  E  E  E  E  E  E  E  E    E  E  E  E  E  E  E  E
|-------------------------|-------------------------|
|-------------------------|-------------------------|
|-12-12-12-12-12-12-12-12-|-11-11-11-11-11-11-11-11-|
|--x--x--x--x--x--x--x--x-|--x--x--x--x--x--x--x--x-|
|-10-10-10-10-10-10-10-10-|--9--9--9--9--9--9--9--9-|
|-------------------------|-------------------------|


   E  E  E  E  E  E  E  E    E  E  E  E  E  E  E  E
|-------------------------|-------------------------|
|-------------------------|-------------------------|
|--7--7--7--7--7--7--7--7-|--7--7--7--7--7--7--7--7-|
|--7--7--7--7--7--7--7--7-|--7--7--7--7--7--7--7--7-|
|--5--5--5--5--5--5--5--5-|--5--5--5--5--5--5--5--5-|
|-------------------------|-------------------------|
|
|  E  E  E  E  E  E  E  E    E  E  E  E  E  E  E  E
|-------------------------|-------------------------|
|-------------------------|-------------------------|
|-14-14-14-14-14-14-14-14-|-12-12-12-12-11-11-11-11-|
|--x--x--x--x--x--x--x--x-|--x--x--x--x--x--x--x--x-|
|-12-12-12-12-12-12-12-12-|-10-10-10-10--9--9--9--9-|
|-------------------------|-------------------------|


   E  E  E  E  E  E  E  E    E  E  E  E  E  E  E  E   W          W
|-------------------------|-------------------------|----------|------|
|-------------------------|-------------------------|----------|------|
|--5--5--5--5--5--5--5--5-|--5--5--5--5--5--5--5--5-|-8--------|-7----|
|--5--5--5--5--5--5--5--5-|--5--5--5--5--5--5--5--5-|-7--------|-7----|
|--3--3--3--3--3--3--3--3-|--3--3--3--3--3--3--3--3-|-6--------|-5----|
|-------------------------|-------------------------|----------|------|
|
|  E  E  E  E  E  E  E  E    E  E  E  E  E  E  E  E   W          W
|-------------------------|-------------------------|----------|------|
|-------------------------|-------------------------|----------|------|
|-12-12-12-12-12-12-12-12-|-11-11-11-11-11-11-11-11-|-8--------|-7----|
|--x--x--x--x--x--x--x--x-|--x--x--x--x--x--x--x--x-|-x--------|-x----|
|-10-10-10-10-10-10-10-10-|--9--9--9--9--9--9--9--9-|-6--------|-5----|
|-------------------------|-------------------------|----------|------|

And finally here is the outro which can also be played by rhythm, lead, or both. 
 
 Gtr I
  Q  Q  Q  Q    Q  Q  Q  Q    Q  Q  Q  Q    Q  Q  Q  Q
|-------------|-------------|-------------|-------------|
|-------8-----|-------8-----|-------3-----|-------3-----|
|----0-----0--|----0-----0--|----0-----0--|----0-----0--|
|-------------|-------------|-------------|-------------|
|-7-----------|-6-----------|-2-----------|-3-----------|
|-------------|-------------|-------------|-------------|


  Q  Q  Q  Q    Q  Q  Q  Q    Q  Q  Q  Q    Q  Q  Q  Q
|-------------|-------------|-------------|-------------|
|-------8-----|-------8-----|-------3-----|-------------|
|----0-----0--|----0-----0--|----0-----0--|----0-----0--|
|-------------|-------------|-------------|-------------|
|-7-----------|-6-----------|-------------|-------------|
|-------------|-------------|-3-----------|-3-----2-----|


  Q  Q  Q  Q    Q  Q  Q  Q    Q  Q  Q  Q    Q  Q  Q  Q
|-------------|-------------|-------------|-------------|
|-------8-----|-------8-----|-------3-----|-------3-----|
|----0-----0--|----0-----0--|----0-----0--|----0-----0--|
|-------------|-------------|-------------|-------------|
|-7-----------|-6-----------|-2-----------|-3-----------|
|-------------|-------------|-------------|-------------|


  Q  Q  Q  Q    Q  Q  Q  Q    W          +W
|-------------|-------------|----------|--------*|
|-------8-----|-------8-----|-3--------|-(3)----*|
|----0-----0--|----0-----0--|-0--------|-(0)----*|
|-------------|-------------|-x--------|-(x)----*|
|-7-----------|-6-----------|-2--------|-(2)----*|
|-------------|-------------|----------|--------*|




----------------------------------------------------------------------------


Duration Legend
---------------
W - whole;
H - half; 
Q - quarter; 
E - 8th; 
S - 16th; 
T - 32nd; 
X - 64th; 
a - acciaccatura
+ - note tied to previous; 
. - note dotted; 
.. - note double dotted
Uncapitalized letters represent notes that are staccato (1/2 duration)
Irregular groupings are notated above the duration line
Duration letters will always appear directly above the note/fret number it represents the 
duration for.  
Duration letters with no fret number below them represent rests.  Multi-
bar rests are notated in the form Wxn, where n is the number of bars to rest for.  Low
melody durations appear below the staff

Tablature Legend
----------------
 h   - hammer-on
 p   - pull-off
 b   - bend
 pb  - pre-bend
 r   - bend release (if no number after the r, then release immediately)
 /\  - slide into or out of (from/to "nowhere")
 s   - legato slide
 S   - shift slide
 - natural harmonic
[n]  - artificial harmonic
n(n) - tapped harmonic
 ~   - vibrato
 tr  - trill
 T   - tap
 TP  - trem. picking
 PM  - palm muting
\n/  - tremolo bar dip; n = amount to dip
 \n  - tremolo bar down
 n/  - tremolo bar up
/n\  - tremolo bar inverted dip
 =   - hold bend; also acts as connecting device for hammers/pulls
 <> - volume swell (louder/softer)
 x   - on rhythm slash represents muted slash
 o   - on rhythm slash represents single note slash

Misc Legend
-----------
 |  - bar
||  - double bar
||o - repeat start
o|| - repeat end
*|  - double bar (ending)
 :  - bar (freetime)
 $  - Segno
 &  - Coda

comments
We did not receive enough feedback on this tab! Please rate:
print report bad tab
1 2 3 4 5
I want to post or [tab]
guest
You may want to rate the tab now too:
select rating
Please do not post tabs as comments. Select "correction" instead!