Oops, an error
Loading. Please wait.

Girls A Straight Up Hustler Tab

version 1
version 1

Whole song

26,911 views 15 this week
2 commentsread comments
1 2 3 4 5
accurate
x 5
add to favorites
launch autoscroll
font size
0
reset
how to read this tab
guitar tuner
Tab Pro tools
  • play this tab
  • loop segment
  • change instrument
  • show fretboard
  • metronome
×
Best way to learn
"Girls A Straight Up Hustler"
Autoscroll
slow
fast
+/-
esc
set tempo
stop
Contributor
Artist: All Time Low
Song: "The Girl's A Straight Up Hustler"
Album: The Party Scene
Record Label: Emerald Moon Records

Tuning: Standard 

INTRO
GUITAR ONE

|-----------------------------------|
|-------8--8--8--8----3--3---3--3---|
|-----0--0--0--0-----0--0---0--0----|
|-----------------------------------|
|---7--7--6--6-----2--2---3--3------|
|-----------------------------------|

|------------------------------------|
|-------8--8--8--8----3--3--3--3--3--|
|-----0--0--0--0-----0--0--0--0--0---|
|------------------------------------|
|---7--7--6--6-----------------------|
|-----------------3--3---2--2--0-----|

VERSE 

GUITAR ONE:

|-----------------------------------|
|-------8--8--8--8----3--3---3--3---|
|-----0--0--0--0-----0--0---0--0----|
|-----------------------------------|
|---7--7--6--6-----2--2---3--3------|
|-----------------------------------|

|------------------------------------|
|-------8--8--8--8----3--3--3--3--3--|
|-----0--0--0--0-----0--0--0--0--0---|
|------------------------------------|
|---7--7--6--6-----------------------|
|-----------------3--3---2--2--0-----|

CONTINUE TWO OR THREE TIMES

GUITAR TWO:
DOES THE PLAYING A LITTLE DIFFERENT LISTEN TO THE SONG

|-----------------------------------|
|-------8--8--8--8----3--3---3--3---|
|-----0--0--0--0-----0--0---0--0----|
|-----------------------------------|
|---7--7--6--6-----2--2---3--3------|
|-----------------------------------|

|------------------------------------|
|-------8--8--8--8----3--3--3--3--3--|
|-----0--0--0--0-----0--0--0--0--0---|
|------------------------------------|
|---7--7--6--6-----------------------|
|-----------------3--3---2--2--0-----|

CONTINUE TWO OR THREE TIMES

ChoruS

GUITAR ONE: CLEAN

|--------------------------------------------|
|--------------------------------------[x2]--|
|------------7-7-7-7--5-5-5-5--7-7-7-7-------|
|---5-5-5-5--7-7-7-7--5-5-5-5--7-7-7-7-------|
|---5-5-5-5--5-5-5-5--3-3-3-3--5-5-5-5-------|
|---3-3-3-3----------------------------------|

GUITAR TWO DISTORTED

|--------------------------------------------|
|--------------------------------------[x2]--|
|------------7-7-7-7--5-5-5-5--7-7-7-7-------|
|---5-5-5-5--7-7-7-7--5-5-5-5--7-7-7-7-------|
|---5-5-5-5--5-5-5-5--3-3-3-3--5-5-5-5-------|
|---3-3-3-3----------------------------------|


INTERLUDE

PART ONE:

GUITAR ONE
|-----------------------------------|
|-----8--------8-------8-------8----|
|---0---0----0---0---0---0---0---0--|
|-----------------------------------|
|-7--------6------------------------|
|------------------7-------8--------|

|---------------------|
|-----8--------8------|
|---0---0----0---0----|
|---------------------|
|-7--------6----------|
|------------------3--|

PART TWO:

GUITAR ONE: DISTORTED

|-----------------------------------------------|
|-----------------------------------------------|
|---9-9-9-9--12-12-12-12--5-5-5-5--12-12-12-12--|
|---9-9-9-9---x--x--x--x--5-5-5-5---x--x--x--x--|
|---7-7-7-7--10-10-10-10--7-7-7-7--10-10-10-10--|
|-----------------------------------------------|


|--------------------------------------------|
|--------------------------------------------|
|------------7-7-7-7---------------7-7-7-7---|
|---9-9-9-9--x-x-x-x--10-10-10-10--x-x-x-x---|
|---9-9-9-9--5-5-5-5--10-10-10-10--5-5-5-5---|
|---7-7-7-7------------8--8--8--8------------|


|-----------------------------------------------------------|
|-----------------------------------------------------------|
|---9-9-9-9--12-12-12-12--5-5-5-5--12-12-12-12--------------|
|---9-9-9-9---x--x--x--x--5-5-5-5---x--x--x--x--5-5--5-5-5--|
|---7-7-7-7--10-10-10-10--7-7-7-7--10-10-10-10--5-5--5-5-5--|
|-----------------------------------------------3-3--3-3-3--|

GUITAR TWO: DISTORTED

|------------------------------------|
|-----------8-8-8-8-------8-8-8-8----|
|---9-9--------------9-9-------------|
|---9-9--------------9-9-------------|
|---7-7--------------6-6-------------|
|------------------------------------|


|--------------------------------------------|
|--------------------------------------------|
|------------3-3-3-3-----------3-3-3-3-------|
|---9-9-9-9-----------5-5-5-5----------------|
|---9-9-9-9-----------5-5-5-5----------------|
|---7-7-7-7-----------7-7-7-7----------------|


VERSE:

JUST THE POWER CHORDS OF THE INTERLUDE ALL MIXED INTO THE VERSE

|-------------------------|
|-------------------------|
|---9-9---9-9-------------|
|---9-9---9-9-------------|
|---7-7---6-6-------------|
|-------------------------|


|---------------------------------|
|---------------------------------|
|---------------------------------|
|---9-9-9--5-5-5-5----------------|
|---9-9-9--5-5-5-5----------------|
|---7-7-7--7-7-7-7----------------|



ChoruS

GUITAR ONE: CLEAN

|--------------------------------------------|
|--------------------------------------[x2]--|
|------------7-7-7-7--5-5-5-5--7-7-7-7-------|
|---5-5-5-5--7-7-7-7--5-5-5-5--7-7-7-7-------|
|---5-5-5-5--5-5-5-5--3-3-3-3--5-5-5-5-------|
|---3-3-3-3----------------------------------|

GUITAR TWO DISTORTED

|--------------------------------------------|
|--------------------------------------[x2]--|
|------------7-7-7-7--5-5-5-5--7-7-7-7-------|
|---5-5-5-5--7-7-7-7--5-5-5-5--7-7-7-7-------|
|---5-5-5-5--5-5-5-5--3-3-3-3--5-5-5-5-------|
|---3-3-3-3----------------------------------|



BREAKDOWN:


|------------------------------------------------|
|------------------------------------------[x5]--|
|--9-9-9-9--7-7-7-7------------------------------|
|--9-9-9-9--7-7-7-7--9-9-9-9--10-10-10-10--------|
|--7-7-7-7--5-5-5-5--7-7-7-7--10-10-10-10--------|
|--------------------7-7-7-7---8--8--8--8--------|


ChoruS

GUITAR ONE: CLEAN

|--------------------------------------------|
|--------------------------------------[x2]--|
|------------7-7-7-7--5-5-5-5--7-7-7-7-------|
|---5-5-5-5--7-7-7-7--5-5-5-5--7-7-7-7-------|
|---5-5-5-5--5-5-5-5--3-3-3-3--5-5-5-5-------|
|---3-3-3-3----------------------------------|

GUITAR TWO DISTORTED

|--------------------------------------------|
|--------------------------------------[x2]--|
|------------7-7-7-7--5-5-5-5--7-7-7-7-------|
|---5-5-5-5--7-7-7-7--5-5-5-5--7-7-7-7-------|
|---5-5-5-5--5-5-5-5--3-3-3-3--5-5-5-5-------|
|---3-3-3-3----------------------------------|




ENDING:

GUITAR ONE: CLEAN

|-----------------------------------|
|-------8--8--8--8----3--3---3--3---|
|-----0--0--0--0-----0--0---0--0----|
|-----------------------------------|
|---7--7--6--6-----2--2---3--3------|
|-----------------------------------|

|------------------------------------|
|-------8--8--8--8----3--3--3--3--3--|
|-----0--0--0--0-----0--0--0--0--0---|
|------------------------------------|
|---7--7--6--6-----------------------|
|-----------------3--3---2--2--0-----|


comments
print report bad tab
2 comments total.
0 reply
tommycore wrote on November 9 2006, 04:13 pm

good job

0 reply
Hurleysurf wrote on June 17 2009, 06:21 pm

thanks man. this tab helped

I want to post or [tab]
guest
You may want to rate the tab now too:
select rating
Please do not post tabs as comments. Select "correction" instead!