Oops, an error
Loading. Please wait.

Girls A Straight Up Hustler Tab

version 2
version 2

Whole song

2,508 views 3 this week
1 commentread comment
1 2 3 4 5
please rate
add to favorites
launch autoscroll
font size
0
reset
how to read this tab
guitar tuner
Tab Pro tools
  • play this tab
  • loop segment
  • change instrument
  • show fretboard
  • metronome
×
Best way to learn
"Girls A Straight Up Hustler"
Autoscroll
slow
fast
+/-
esc
set tempo
stop
Contributor
Difficulty
intermediate
All credit goes to JCcovers2 on YouTube, check him out and subscribe to him.

Standard tuning

Guitar 1 (Alex) (0:00-0:44) Intro

E|-------------------------------------------------------------------------|
G|------8------8--------8-------8---------3-------3--------3-----3---------|
B|-------------------------------------------------------------------------|
D|---0------0--------0-------0---------0-------0--------0-----0------------|
A|-7------7--------6-------6--------------------------3-----3--------------|
E|-----------------------------------3-------3-----------------------------|


Guitar 2 (Jack) (0:11-0:44) Intro

E|---7-----7-----7----------------------------------------------------------|
G|-----8------8-----8------7--8--8/10--8------7--8--8/10---8--7-------------|
B|---------------------------------------------------------------7----------|
D|--------------------------------------------------------------------------|
A|--------------------------------------------------------------------------|
E|--------------------------------------------------------------------------|

E|-----------7------------------7-------------10-------------10-------------|
G|--------8-----8------------8-----8--------8----8---------8----8-----------|
B|-----9------------------8---------------7--------------7------------------|
D|--------------------------------------------------------------------------|
A|--------------------------------------------------------------------------|
E|-----------(above continued)----------------------------------------------|

Guitar 1 (Alex) (0:45-1:07) Chorus

E|------------------(and put down....)--(and choke...)----(that makes...)---|
G|(take off...)-------------------------------------------------------------|
B|------------------------7----------------5--------------8--------7--------|
D|---5--------------------7---x16----------5--x16---------7-x8-----7--x8----|
A|---5--x16---------------5----------------3--------------6--------5--------|
E|---3----------------------------------------------------------------------|

Guitar 2 (Jack)  (0:45-1:07) Chorus

E|--------------------------------------------------------------------------|
G|--------------------------------------------------------------------------|
B|--12---------11--------12----------7-----------12--------11---------------|
D|---x---x8----x---x4-----x--x4------x--x8--------x--x4-----x--x4-----------|
A|--10---------9---------10----------5-----------10---------9---------------|
E|--------------------------------------------------------------------------|

E|--------------------------------------------------------------------------|
G|--------------------------------------------------------------------------|
B|--12---------11--------12----------8-----------7--------------------------|
D|---x---x8----x---x4-----x--x4------x--x8-------x--x8----------------------|
A|--10---------9---------10----------6-----------5--------------------------|
E|--------------------------------------------------------------------------|


Guitar 1 (Alex) (1:08-1:17) Interlude 1

E|----(slow)------------------------------------------------------------------|
G|-----8---------8---------3---------3----------------8--------8-----3~-------|
B|----------------------------------------------------------------------------|
D|---0---0-----0--0------0--0-----0---0-------------0---0-----0--0---0~-------|
A---7---------6---------2--------3-----------------7---------6-------2~-------|
E|----------------------------------------------------------------------------|

In the next part, Guitar 1 and Guitar 2 alternate.
A = Alex's part
B = Jack's part

Guitar 1 (Alex)  (1:18-1:30) Interlude 2

E|-(on second time, do the first two chords, and skip last two--and go to:--|
G|--------8888--------8888----------3333----------3333----------------------|
B|--------------------------------------------------------------------------|
D|--B-B---0000--B-B---0000----B-B---0000---B-B----0000--------------------5-|
A|--B-B---7777--B-B---6666----B-B---2222---B-B----3333--------------------5-|
E|------------------------------------------------------------------------3-|


Guitar 2 (Jack)  (1:18-1:30) Interlude 2

E|-----------------------------------------------(same as above, end on):---|
G|-------A------------A----------A---------A--------------------------------|
B|--------------------------------------------------------------------------|
D|--9-9--A-----9-9----A----5-5---A---5-5---A------------------------------5-|
A|--7-7--A-----6-6----A----2-2---A---3-3---A------------------------------5-|
E|------------------------------------------------------------------------3-|

Guitar 1 (Alex)  (1:30-1:52) Verse

E|--------------------------------------------------------------------------|
G|--------------------------------------------------------------------------|
B|--------------------------------------------------------------------------|
D|--------------------------------------------------------------------------|
A|--------------------------------------------------------------------------|
E|--------------------------------------------------------------------------|


Guitar 2 (Jack)  (1:30-1:52) Verse

E|--------------------------------------------------------------------------|
G|--------------------------------------------------------------------------|
B|--------------------------------------------------------------------------|
D|---9-9-9-9---9-9-9-9----5-5-5-5----5-5-5-5--------------------------------|
A|---7-7-7-7---6-6-6-6----2-2-2-2----3-3-3-3--------------------------------|
E|--------------------------------------------------------------------------|

Guitar 1 & Guitar 2  (1:52-2:13)  Chorus (Tabbed above)


Guitar 1 & Guitar 2 (2:13-2:25) Interlude 3

E|--------------------------------------------------------------------------|
G|--------------------------------------------------------------------------|
B|--------------------------------------------------------------------------|
D|-2~--------------22-2~----------------------------------------------------|
A|-2~--------------22-2~----------------------------------------------------|
E|-0~--------------00-0~----------------------------------------------------|
                   ..

Guitar 1 (Alex) (2:26-2:47) Verse 2 (This part was not figured out by JCcovers2, I improvised)

E|--------------------------------------------------------------------------|
G|--------------------------------------------------------------------------|
B|---9-9-9-9---8-8-8-8------------------------------------------------------|
D|---x-x-x-x---x-x-x-x------------------------------------------------------|
A|---7-7-7-7---6-6-6-6----9-9-9-9---10-10-10-10-----------------------------|
E|------------------------7-7-7-7----8--8--8--8-----------------------------|


Guitar 2 (Jack) (2:26-2:47) Verse 2

E|---------------(Elevens, not ones)----------------------------------------|
G|--------------------------------------------------------------------------|
B|---99999999--111111111111-1212121212121212--1414141414141414--------------|
D|---xxxxxxxx---xxxxxxxxx---x-x-x-x-x-x-x-x----x-x-x-x-x-x-x-x--------------|
A|---77777777---99999999---1010101010101010---1212121212121212--------------|
E|--------------------------------------------------------------------------|


Guitar 1 & 2  Chorus  (2:47-3:08)


Guitar 1  Intro  (3:09-3:38)


It's definitely not perfect, but far better than the tabs that are on here.

For the proper way to play it, visit YouTube.com/JCcovers2 and browse his channel for 
video.  While you're there, you'll probably find some other videos of interest.
comments
We did not receive enough feedback on this tab! Please rate:
print report bad tab
1 2 3 4 5
1 comment total.
0 reply
DC Gibson wrote on July 8 2012, 11:12 pm

INTRO: Alex's part is more like
|-----------------------------------------------------|
|----8--8------8--8---3--3--3--3----------------------|
|---0--0------0--0---0--0--0--0-----------------------|
|-----------------------------------------------------|
|-7--7------6--6----3--3--2--2------------------------|
|-----------------------------------------------------|

I want to post or [tab]
guest
You may want to rate the tab now too:
select rating
Please do not post tabs as comments. Select "correction" instead!