Oops, an error
Loading. Please wait.

Girls A Straight Up Hustler Tab

version 3
version 3

Whole song

3,607 views 3 this week
no commentswrite comment
1 2 3 4 5
x 10
add to favorites
launch autoscroll
font size
0
reset
how to read this tab
guitar tuner
Autoscroll
slow
fast
+/-
esc
set tempo
stop
Help us to improve Ultimate-Guitar.com Take our survey!
×
Author
Difficulty
intermediate
[Into/Verse]

Guitar 1

|-----------------------------------|
|-------8--8--8--8----3--3---3--3---|
|-----0--0--0--0-----0--0---0--0----|
|-----------------------------------|
|---7--7--6--6------2--2--3--3------|
|-----------------------------------|

|------------------------------------|
|-------8--8--8--8----3--3--3--3-----|
|-----0--0--0--0-----0--0--0--0------|
|------------------------------------|
|---7--7--6--6-----------------------|
|-----------------3--3---3--2--------|

Guitar 2

|---7---7---7-------------------------------|
|-----8---8---8-7-8-8/10-8-7-8-8/10-8-7-8---|
|-------------------------------------------|
|-------------------------------------------|
|-------------------------------------------|
|-------------------------------------------|

|-------7-------7-------10-------10---------|
|-----8---8---8---8---8----8---8----8-------|
|---9-------8-------7--------7--------------|
|-------------------------------------------|
|-------------------------------------------|
|-------------------------------------------|

[Chorus]

Guitar 1 [strum these chords] 2x

          G    D    C    D
|---x-x--------------------------------------|
|---x-x--------------------------------------|
|---x-x--------7----5----7-------------------|
|---x-x---5----7----5----7-------------------|
|---x-x---5----5----3----5-------------------|
|---x-x---3----------------------------------|

Guitar 2 

Play each bar while the chord shown above is playing

G                             D

|--------------------------|--------------------------|
|--------------------------|--------------------------|
|----7-7-7-7--11-11-12-12--|----7-7-7-7-12-12-11-11---|
|----x-x-x-x--x--x--x--x---|----x-x-x-x-x--x--x--x----|
|----5-5-5-5--9--9--10-10--|----5-5-5-5-10-10-9--9----|
|--------------------------|--------------------------|

C                                  D

|------------------------------|--------------------------------|
|------------------------------|--------------------------------|
|----12-12-12-12-11-11-11-11---|----8-8-8-8-7-7-7-7-7-7-7-7-----|
|----x--x--x--x--x--x--x--x----|----x-x-x-x-x-x-x-x-x-x-x-x-----|
|----10-10-10-10-9--9--9--9----|----6-6-6-6-5-5-5-5-5-5-5-5-----|
|------------------------------|--------------------------------|

G                                 D

|------------------------------|--------------------------------|
|------------------------------|--------------------------------|
|----12-12-12-12-11-11-11-11---|----14-14-14-14-12-12-11-11-----|
|----x--x--x--x--x--x--x--x----|----x--x--x--x--x-x-x-x--x------|
|----10-10-10-10-9--9--9--9----|----12-12-12-12-10-10-9--9------|
|------------------------------|--------------------------------|

C                                  D

|------------------------------|--------------------------------|
|------------------------------|--------------------------------|
|----12-12-12-12-11-11-11-11---|----8~--\7~---------------------|
|----x--x--x--x--x--x--x--x----|----x~--\x~---------------------|
|----10-10-10-10-9--9--9--9----|----6~--\5~---------------------|
|------------------------------|--------------------------------|


[Interlude]
|-----------------------------------|
|-----8--------8-------3-------3----|
|---0---0----0---0---0---0---0---0--|
|-----------------------------------|
|-7--------6-------2-------3--------|
|-----------------------------------|

|---------------------|
|-----8--------8---3--|
|---0---0----0---0-0--|
|---------------------|
|-7--------6----------|
|------------------3--|

Guitar 1

|----------------------------------------------------|
|----------------------------------------------------|
|---------------12-12-12-12-------------12-12-12-12--|
|----------------x--x--x--x--------------x--x--x--x--|
|---------------10-10-10-10-------------10-10-10-10--|
|---12-12-12-12--------------11-11-11-11-------------|
PM: .  .  .  .               .  .  .  .

|-----------------------------------------|
|-----------------------------------------|
|------------7-7-7-7------------7-7-7-7---|
|------------x-x-x-x------------x-x-x-x---|
|------------5-5-5-5------------5-5-5-5---|
|---7-7-7-7------------8-8-8-8------------|
PM: . . . .            . . . .

|-------------------------------------------------------------------|
|-------------------------------------------------------------------|
|---------------12-12-12-12-------------12-12-12-12-----------------|
|----------------x--x--x--x--------------x--x--x--x--5-5--5-5-5-5~--|
|---------------10-10-10-10-------------10-10-10-10--5-5--5-5-5-5~--|
|---12-12-12-12--------------11-11-11-11-------------3-3--3-3-3-3~--|
PM: .  .  .  .               .  .  .  .              

Guitar 2 

[Palm mute everything but let the last chord ring]

|-------------------------------------------------------------------|
|-------------------------------------------------------------------|
|-------------------------------------------------------------------|
|---9-9--9-9--5-5--5-5--9-9--9-9--5-5--5-5-5-5----------------------|
|---7-7--6-6--2-2--3-3--7-7--6-6--5-5--5-5-5-5----------------------|
|---------------------------------3-3--3-3-3-3----------------------|

Verse 2

Guitar 1 [Repeat twice]

|-----------------------------------------------------------------------|
|----8-8-8-8-8-8-8-8-3-3-3-3-3-3-3-3-8-8-8-8-8-8-8-8-3-3-3-3-33333333---|
|----x-x-x-x-x-x-x-x-x-x-x-x-x-x-x-x-x-x-x-x-x-x-x-x-x-x-x-x-00000000---|
|----x-x-x-x-x-x-x-x-x-x-x-x-x-x-x-x-x-x-x-x-x-x-x-x-x-x-x-x-xxxxxxxx---|
|----7-7-7-7-6-6-6-6-2-2-2-2-3-3-3-3-7-7-7-7-6-6-6-6-2-2-2-2-33333333---|
|-----------------------------------------------------------------------|

Guitar 2 

This part is palm muted

|--------------------------------------------------------------------|
|--------------------------------------------------------------------|
|--------------------------------------------------------------------|
|----9-9--9-9-9-9--9-9-5-5--5-5-5-5--5-5-9-9--9-9-5-5--5-5-5-5-------|
|----7-7--7-7-6-6--6-6-2-2--2-2-3-3--3-3-7-7--7-7-5-5--5-5-5-5-------|
|-------------------------------------------------3-3--3-3-3-3-------|

No longer muted here, play twice the strumming for the last chord changes tho

|-------------------------------------------------------------------|
|-------------------------------------------------------------------|
|-------------------------------------------------------------------|
|---9-9-9-9-9-9-9-9-5-5-5-5-5-5-5-5-9-9-9-9-9-9-9-9-5-5-5-5-5-5-5-5-|
|---7-7-7-7-6-6-6-6-2-2-2-2-3-3-3-3-7-7-7-7-6-6-6-6-5-5-5-5-5-5-5-5-|
|---------------------------------------------------3-3-3-3-3-3-3-3-|


Back to Chorus

After the chorus you play an E minor chord (022xxxx) and let it ring 

[Second Interlude]

Guitar 1

|--------------------------------|
|--------------------------------|
|----9---9/11--11/12--12/14------|
|----x---x-x---x--x----x--x------|
|----7---7/9---9/10---10/12------|
|--------------------------------|

Guitar 2

|-------------------------------------------|
|----7--7--7--7--9--9--9--9-----------------|
|----8--8--8--8--10-10-10-10----------------|
|----x--x--x--x--x--x--x--x-----------------|
|----6--6--6--6--8--8--8--8-----------------|
|-------------------------------------------|


Back To Chorus


[Outro]

|-----------------------------------|
|-----8--------8-------3-------3----|
|---0---0----0---0---0---0---0---0--|
|-----------------------------------|
|-7--------6-------2-------3--------|
|-----------------------------------|

|-----------------------------------|
|-----8--------8--------------------|
|---0---0----0---0----0---0---------|
|-----------------------------------|
|-7--------6------------------------|
|-------------------3---2-----------|

|-----------------------------------|
|-----8--------8-------3-------3----|
|---0---0----0---0---0---0---0---0--|
|-----------------------------------|
|-7--------6-------2-------3--------|
|-----------------------------------|

|------------------------|
|-----8--------8----3----|
|---0---0----0---0--0----|
|------------------------|
|-7--------6-------------|
|-------------------3----|

Suggest correction
comments
print report bad tab
guest
You may want to rate the tab now too:
select rating
Wanna post a correction for this tab? Suggest correction