Oops, an error
Loading. Please wait.

Guts Bass Tab

version 1
version 1

Whole song

Interactive

2,742 views 6 this week
no commentswrite comment
1 2 3 4 5
excellent!
x 3
add to favorites
launch autoscroll
font size
0
reset
guitar tuner
Autoscroll
slow
fast
+/-
esc
set tempo
stop
Help us to improve Ultimate-Guitar.com Take our survey!
×
Author
Tuning
mariewong 2,093
D A D G B E
-------------------------------------------------------------------------------
			     GUTS - All Time Low.
-------------------------------------------------------------------------------

Tabbed By : mariewong.





Tuning: Drop D.





Verse [00:08]

G|----------------------------------------------------------|
D|----------------------------------------------------------|
A|------------------------------2-2--2--2----0-0-0---0------|
D|--4-5-5--5--5----5-5--5--5-----------------------4---5-4--|

G|--------------------------------------------------------|
D|--------------------------------------------------------|
A|----------------------------2-2--2--2----0-0-0---4-4-5--|
D|--5-5--5--5----5-5--5--5-----------------------4--------|

G|----------------------------------------------------------|
D|----------------------------------------------------------|
A|------------------------------2-2--2--2----0-0-0---0------|
D|--4-5-5--5--5----5-5--5--5-----------------------4---5-4--|

G|---------------------------------------------------------------------|
D|---------------------------------------------------------------------|
A|----------------------------2-2--2--2----0-0-0---4-4-5----2\--0-0-0--|
D|--5-5--5--5----5-5--5--5-----------------------4---------------------|



Chorus [00:44]

G|------------------------------------------------|
D|------------------------------------------------|
A|--------------------------2~-2--2~---000--------|
D|--5~-5-05~-0-555-0-000---------4---4-----4-444--|

G|------------------------------------------------|
D|------------------------------------------------|
A|--------------------------2~-2--2~---000---444--|
D|--5~-5-05~-0-555-0-000---------4---4-----4------|

G|-------------------------------------------|
D|-------------------------------------------|
A|--------------------444--------------------|
D|--2~-2-22----44-4-0--------5~-5-0-555--7~--|



Verse [01:07]

G|----------------------------------------------------------|
D|----------------------------------------------------------|
A|------------------------------2-2--2--2----0-0-0---0------|
D|--4-5-5--5--5----5-5--5--5-----------------------4---5-4--|

G|---------------------------------------|
D|---------------------------------------|
A|----------------------------2-2--2--2--|
D|--5-5--5--5----5-5--5--5---------------|

G|----------------------------------------------------------|
D|----------------------------------------------------------|
A|------------------------------2-2--2--2----0-0-0---0------|
D|--4-5-5--5--5----5-5--5--5-----------------------4---5-4--|

G|---------------------------------------------------------------------|
D|---------------------------------------------------------------------|
A|----------------------------2-2--2--2----0-0-0---4-4-5----2\--0-0-0--|
D|--5-5--5--5----5-5--5--5-----------------------4---------------------|



Chorus [01:44]

G|------------------------------------------------|
D|------------------------------------------------|
A|--------------------------2~-2--2~---000--------|
D|--5~-5-05~-0-555-0-000---------4---4-----4-444--|

G|------------------------------------------------|
D|------------------------------------------------|
A|--------------------------2~-2--2~---000---444--|
D|--5~-5-05~-0-555-0-000---------4---4-----4------|

G|-------------------------------------------|
D|-------------------------------------------|
A|--------------------444--------------------|
D|--2~-2-22----44-4-0--------5~-5-0-555--7~--|



Bridge [02:08]

G|--------------------------------------------------------------------|
D|--------------------------------------------------------------------|
A|-----------------2-2--------------------------5(x6)----------4-4-4--|
D|--4~--4-4-------------------2--------5(x12)-----------4-4-4---------|

G|------------------------------------------------|
D|------------------------------------------------|
A|--------------------------2~-2--2~---000--------|
D|--5~-5-05~-0-555-0-000---------4---4-----4-444--|

G|------------------------------------------------|
D|------------------------------------------------|
A|--------------------------2~-2--2~---000---444--|
D|--5~-5-05~-0-555-0-000---------4---4-----4------|



Chorus [02:48]

G|--------------------------|
D|--------------------------|
A|--2~-2--2~---0-0-0--------|
D|-------4---4-------4-4-4--|

G|-------------------------------------------------|
D|-------------------------------------------------|
A|---------------------------2~-2--2~---000---445--|
D|--5-5-5--0-5-5--0-0-0-0---------4---4-----4------|

G|--------------------------------------------------------|
D|--------------------------------------------------------|
A|-----------------------444------------------------------|
D|--2~-2-0-222----44-4-0--------5~-5-0-555----7~-7-7-777--|

G|---------------------------------------------|
D|---------------------------------------------|
A|-----------------------444------------5\--0--|
D|--2~-2-0-222----44-4-0--------5~-5-0---------|





| /  slide up
| \  slide down
| h  hammer-on
| p  pull-off
| ~  vibrato
| +  harmonic
| x  Mute note
===============================================================================
Suggest correction new What's this?
You can suggest a correction to this tab. Community and Mods will review your correction and vote to approve or reject it.
comments
We did not receive enough feedback on this tab! Please rate:
print report bad tab
1 2 3 4 5
guest
You may want to rate the tab now too:
select rating
Please do not post tabs as comments. Select "correction" instead!