Oops, an error
Loading. Please wait.

Hello Brooklyn Tab

version 2
version 2

Whole song

Interactive

16,576 views 15 this week
2 commentsread comments
1 2 3 4 5
excellent!
x 7
add to favorites
launch autoscroll
font size
0
reset
how to read this tab
guitar tuner
Autoscroll
slow
fast
+/-
esc
set tempo
stop
Help us to improve Ultimate-Guitar.com Take our survey!
×
Author
All Time Low
Hello, Brooklyn

rate and comment please :)

Intro/Verse:

guitar 1:
e|----------------------|
B|-------55-------------|
G|-44----44----22-------|
D|-44----22----22----44-| 4x
A|-22----------00----44-|
E|-------------------22-|

e|-----------------|
B|-------55--------|
G|-44----44--------|
D|-44----22----2---|
A|-22----------2---|
E|-----------7/0---|


guitar 2:
"I bleed, red lips, you're unbelievable"
e|---------------------------------|
B|--------55555555-----------------|
G|444444444444444422222222---------|
D|44444444222222222222222244444444-|
A|22222222--------0000000044444444-|
E|------------------------22222222-|
PM................................

e|------------------------|
B|--------55555555--------|
G|4444444444444444--------|
D|4444444422222222---2~~--| 
A|22222222-----------2~~--|
E|-----------------7/0~~--|
PM................


guitar 3:
"I bleed, red lips, you're unbelievable"
e|-----~12~~----------------12~~--|
B|12~~-------10~~-7~~--12~~-------|
G|--------------------------------|
D|--------------------------------|
A|--------------------------------|
E|--------------------------------|
this part is very difficult to hear


Chorus 1:

e|-----------------------------------|
B|-----------------------------------|
G|22222222--------44444444/77777777--|
D|222222222222222244444444/77777777--| 3x
A|000000002222222222222222/55555555--|
E|--------00000000-------------------|

e|-----------------------------------|
B|-----------------------------------|
G|22222222----------44-----77--------|
D|2222222222222222--44-----77--------|
A|0000000022222222--22-----55--------|
E|--------00000000-------------------|

Verse 2:

guitar 1:
e|----------------------|
B|-------55-------------|
G|-44----44----22-------|
D|-44----22----22----44-| 3x
A|-22----------00----44-|
E|-------------------22-|

e|-----------------|
B|-------55--------|
G|-44----44--------|
D|-44----22----2---|
A|-22----------2---|
E|-----------7/0---|

guitar 2:
"I'll be yours truly unbelievable"
e|---------------------------------|
B|--------55555555-----------------|
G|444444444444444422222222---------|
D|44444444222222222222222244444444-|
A|22222222--------0000000044444444-|
E|------------------------22222222-|
PM................................

e|------------------------|
B|--------55555555--------|
G|4444444444444444--------|
D|4444444422222222---2~~--| 
A|22222222-----------2~~--|
E|-----------------7/0~~--|
PM................


guitar 3:
e|--------12-1212----------------|
B|12-1212--x--x-x-10-1010--7-77--|
G|-x--x-x--9--9-9--x--x-x--x-xx--|
D|-9--9-9----------7--7-7--4-44--| 3x
A|-------------------------------|
E|-------------------------------|

e|--------12-1212--|
B|12-1212--x--x-x--|
G|-x--x-x--9--9-9--|
D|-9--9-9----------|
A|-----------------|
E|-----------------|
this time guitar 3 starts with guitar 1




Chorus 2:
Same as chorus 1


Bridge:

guitar 1:
e|------------------------------------------------5~~---|
B|------------------------------------------------6~~---|
G|----------7777777799999999------------77777777--7~~---|
D|44---22---7777777799999999--44---22---77777777--7~~---|
A|44---22---5555555577777777--44---22---55555555--5~~---|
E|22---00---------------------22---00-------------------|

guitar 2:
e|55544----(seven----5554477-|--55544----(four-----5555555577777777--|
B|-----555----times)---------|-------555----times)-------------------|
G|---------------------------|---------------------------------------|


Chorus 3/Outro:

e|-----------------------------------|
B|-----------------------------------|
G|22--------44---77---22--------7~~--|
D|22---22---44---77---22---22---7~~--|
A|00---22---22---55---00---22---5~~--|
E|-----00------------------00--------|

e|-----------------------------------|
B|-----------------------------------|
G|22222222--------44444444/77777777--|
D|222222222222222244444444/77777777--| 5x
A|000000002222222222222222/55555555--|
E|--------00000000-------------------|

e|--------------------------------|
B|--------------------------------|
G|22222222----------44--77---2~~--|
D|2222222222222222--44--77---2~~--|
A|0000000022222222--22--55---0~~--|
E|--------00000000----------------|
Suggest correction
What's this?
You can suggest a correction to this tab. Community and Mods will review your correction and vote to approve or reject it.
comments
print report bad tab
2 comments total.
0 reply
alexl182 18 wrote on September 23 2009, 05:39 pm

great tab. this one seems like it has the correct notes as compared to the first version on here

0 reply
K.L.O.U.D. F-13 35 wrote on September 27 2009, 04:53 pm

Yeah, this one actually has the lead part for the bridge

guest
You may want to rate the tab now too:
select rating
Please do not post tabs as comments. Select "correction" instead!