Oops, an error
Loading. Please wait.

Hello Brooklyn Tab

version 3
version 3

Whole song

Interactive

2,085 views 1 this week
1 commentread comment
1 2 3 4 5
x 3
add to favorites
launch autoscroll
font size
0
reset
how to read this tab
guitar tuner
Autoscroll
slow
fast
+/-
esc
set tempo
stop
Help us to improve Ultimate-Guitar.com Take our survey!
×
Tuning: DADGBE


--Intro / Verse--

guitar 1
e|--------------------|
B|--------------------|
G|-----99-------------|
D|99---99---77---44---| x4
A|99---77---77---44---|
E|99--------77---44---|
                      
e|-----------------------------------------|
B|-----------------------------------------|
G|-----99----------------------------------|
D|99---99---2~-----------------------------| 
A|99---77---2~-----------------------------|
E|99--------2~-----------------------------|


Guitar 2 
e|-----------------------------------------|
B|-----------------------------------------|
G|----------99999999-----------------------|
D|99999999--99999999--77777777--44444444---| 
A|99999999--77777777--77777777--44444444---|
E|99999999------------77777777--44444444---|
 pm.....................................

 
e|-----------------------------------------|
B|-----------------------------------------|
G|----------99999999-----------------------|
D|99999999--99999999--2~-------------------| 
A|99999999--77777777--2~-------------------|
E|99999999------------2~-------------------|
 pm.................



--CHORUS--

Guitar 1&2
e|-----------------------------------------|
B|-----------------------------------------|
G|----------99999999--44444444/-77777777---|
D|77777777--99999999--44444444/-77777777---| x3
A|77777777--77777777--22222222/-55555555---|
E|77777777---------------------------------|

 
e|-----------------------------------------|
B|-----------------------------------------|
G|----------99999999--44---77--------------|
D|77777777--99999999--44---77--------------| 
A|77777777--77777777--22---55--------------|
E|77777777---------------------------------|



--FILL--

Guitar 2
e|-----------------------------------------|
B|-----------------------------------------|
G|----------99999999--44444444/-77777777---|
D|77777777--99999999--44444444/-77777777---| 
A|77777777--77777777--22222222/-55555555---|
E|77777777---------------------------------|



--VERSE--


guitar 1
e|--------------------|
B|--------------------|
G|-----99-------------|
D|99---99---77---44---| x4
A|99---77---77---44---|
E|99--------77---44---|
                      
e|-----------------------------------------|
B|-----------------------------------------|
G|-----99----------------------------------|
D|99---99---2~-----------------------------| 
A|99---77---2~-----------------------------|
E|99--------2~-----------------------------|


Guitar 2 
e|-----------------------------------------|
B|-----------------------------------------|
G|----------99999999-----------------------|
D|99999999--99999999--77777777--44444444---| 
A|99999999--77777777--77777777--44444444---|
E|99999999------------77777777--44444444---|
 pm.....................................

 
e|-----------------------------------------|
B|-----------------------------------------|
G|----------99999999-----------------------|
D|99999999--99999999--2~-------------------| 
A|99999999--77777777--2~-------------------|
E|99999999------------2~-------------------|
 pm.................


--CHORUS--

Guitar 1&2
e|-----------------------------------------|
B|-----------------------------------------|
G|----------99999999--44444444/-77777777---|
D|77777777--99999999--44444444/-77777777---| x3
A|77777777--77777777--22222222/-55555555---|
E|77777777---------------------------------|

 
e|-----------------------------------------|
B|-----------------------------------------|
G|----------99999999--44444444---77777777--|
D|77777777--99999999--44444444---77777777--| 
A|77777777--77777777--22222222---55555555--|
E|77777777---------------------------------|


--BRIDGE--

guitar 1 
e|-55544---------55544777-|-55544----------5555555577777777--|
B|------555-(x7)----------|------555-(x4)--------------------|


guitar 2
e|---------------------------------------------|
B|---------------------------------------------|
G|--------7777777777777777--9999999999999999---|
D|44--22--7777777777777777--9999999999999999---| 
A|44--22--5555555555555555--7777777777777777---|
E|44--22---------------------------------------|

e|--------------------------5~-----------------|
B|--------------------------6~-----------------|
G|--------7777777777777777--7~-----------------|
D|44--22--7777777777777777--7~-----------------| 
A|44--22--5555555555555555--5~-----------------|
E|44--22---------------------------------------|



--FILL2--

Guitar 1&2
e|-----------------------------------------|
B|-----------------------------------------|
G|----99--44--77------99--7~---------------|
D|77--99--44--77--77--99--7~---------------| 
A|77--77--22--55--77--77--5~---------------|
E|77--------------77-----------------------|



--END CHORUS--

Guitar 1&2
e|-----------------------------------------|
B|-----------------------------------------|
G|----------99999999--44444444/-77777777---|
D|77777777--99999999--44444444/-77777777---| x5
A|77777777--77777777--22222222/-55555555---|
E|77777777---------------------------------|

 
e|-----------------------------------------|
B|-----------------------------------------|
G|----------99999999--44---77--------------|
D|77777777--99999999--44---77---2~---------| 
A|77777777--77777777--22---55---2~---------|
E|77777777----------------------2~---------|
Suggest correction
Give kudos to tab author, rate the tab!
1 2 3 4 5
comments
print report bad tab
1 comment total.
0 reply
gustavoaraujo9 2,692 Dec 05, 2010 11:26 AM

It's great, man.
I think it ends on A, not E, though.
I couldn't spot any more errors.

guest
You may want to rate the tab now too:
select rating
Wanna post a correction for this tab? Suggest correction