Oops, an error
Loading. Please wait.

Heroes Bass Tab

version 1
version 1

Whole song

Interactive

3,788 views 6 this week
1 commentread comment
1 2 3 4 5
excellent!
x 3
add to favorites
launch autoscroll
font size
0
reset
guitar tuner
Autoscroll
slow
fast
+/-
esc
set tempo
stop
Help us to improve Ultimate-Guitar.com Take our survey!
×
Author
New song off All Time Low's new album "Dirty Work." 

Video Guide:
http://www.youtube.com/watch?v=hPCAZfJs9SE

Intro
G-------------------------------------|
D-------------------------------------|
A---3333-333-33-33333-3333-333-333----|
D---------------------------------3\--|


Verse 1
G--------------------------------------------------------|
D--------------------------------------------------------|
A----3-------3(x32)---------3(x32)--------3(x32)---------|
D------5-3\---------5-3(x32)-------3(x32)-------3(x32)---|


Prechorus
G-------------------------------------|
D-----------------------------5-575---|
A---------------------------57-7---5\-|
D---7-7-7-7-5-5-5-5-33333333----------|


Chorus x2                                     Optional Fill after C
G-----------------------------------------|   G----5/75----------|
D-----------------------------------------|   D--------75--------|
A--3(x16)------7-77-----------------------|   A------------------|
D--------3(x16)----2-22-3-33-xxx-xxx-xxx--|   D-----------3(x16)-|


Verse 2
G-----------------------------|
D-----------------------------|
A--3(x32)--------3(x32)-------|
D--------5-3(x32)------3(x32)-|


Prechorus
G-------------------------------------|
D-----------------------------5-575---|
A---------------------------57-7---5\-|
D---7-7-7-7-5-5-5-5-33333333----------|


Chorus x2                                     Optional Fill after C
G-----------------------------------------|   G----5/75----------|
D-----------------------------------------|   D--------75--------|
A--3(x16)------7-77-----------------------|   A------------------|
D--------3(x16)----2-22-3-33-xxx-xxx-xxx--|   D-----------3(x16)-|


Bridge (Come in on the second passing)x5     Bridge Cont.
G---R-----------------------------|           G-------------------------|
D---E-----------------------------|           D--------------------575~-|
A---S-----------------------------|           A-------------------------|
D---T---7777\-777222-3333\-333222-|           D--7777-777333\-----------|


Chorus x2 (Hold last F)                      Optional Fill after C
G-----------------------------------------|   G----5/75----------|
D-----------------------------------------|   D--------75--------|
A--3(x16)------7-77-----------------------|   A------------------|
D--------3(x16)----2-22-3-33-xxx-xxx-xxx--|   D-----------3(x16)-|


Outro
G-------------------------------------|
D-------------------------------------|
A---3333-333-33-33333-3333-333-333----|
D---------------------------------3\--|
Suggest correction new What's this?
You can suggest a correction to this tab. Community and Mods will review your correction and vote to approve or reject it.
comments
We did not receive enough feedback on this tab! Please rate:
print report bad tab
1 2 3 4 5
1 comment total.
-2 reply
intothe 852 wrote on June 9 2011, 10:12 am

Why are so many unnecessary drop D tabs for All Time Low? There is NO reason for it, no low D note is ever played, they're mostly in standard tuning...

guest
You may want to rate the tab now too:
select rating
Please do not post tabs as comments. Select "correction" instead!