Oops, an error
Loading. Please wait.

Hit The Lights Tab

version 1
version 1

Intro

Whole song

Interactive

4,027 views 1 this week
2 commentsread comments
1 2 3 4 5
1 last vote to show rating
add to favorites
launch autoscroll
font size
0
reset
how to read this tab
guitar tuner
×
Best way to learn
"Hit The Lights"
Autoscroll
slow
fast
+/-
esc
set tempo
stop
Author
Difficulty
  follow
novice
Hey guys. This is the Intro for "Hit The Lights" by All Time Low. The rest of the song is still to come.


Intro
Guitar 1
e|---------------------|
B|---------------5h6---|
G|------4-4---4-4------|
D|---2-2---2-2---------| x4
A|---------------------|
E|---------------------|
     . ..  . ..

Guitar 2
(After Guitar 1 x2)
e|---0~--------0~-------0~----|
B|---0~--------0~-------0~----|
G|---2~----2-2-0~-------2~----|
D|---2~----2-2-2~---2-2-2~----|
A|---0~----0-0-2~---2-2-0~----|
E|---x---------0~---0-0-x-----|
Suggest correction
Give kudos to tab author, rate the tab!
1 2 3 4 5
comments
print report bad tab
2 comments total.
+1 reply
TayRayWebb 16 Jul 18, 2007 02:40 PM

I think it's

e|---------------------|
B|---------------4h5---| Instead of... B|---------------5h6---|
G|------4-4---4-4------|
D|---2-2---2-2---------| x4
A|---------------------|
E|---------------------|


B|---------------5h6---|

0 reply
xdeline! 36 Jul 18, 2007 03:21 PM

right, thanks i must have wrote it wrong.

guest
You may want to rate the tab now too:
select rating
Wanna post a correction for this tab? Suggest correction