Oops, an error
Loading. Please wait.

Hit The Lights Tab

version 2
version 2

Intro

Whole song

Interactive

2,411 views 3 this week
2 commentsread comments
1 2 3 4 5
x 3
add to favorites
launch autoscroll
font size
0
reset
how to read this tab
guitar tuner
Autoscroll
slow
fast
+/-
esc
set tempo
stop
Help us to improve Ultimate-Guitar.com Take our survey!
×
Difficulty
intermediate
Guitar 1:

E----------------------------------------------------------|
B----------------------------------------------------------|
G------------------6h7p6-----------------------------------|
D------7-7-----7-7-----------------------------------------|
A--5-5-----5-5---------------------------------------------|
E----------------------------------------------------------|


E----------------------------------------------------------|
B----------------------------------------------------------|
G------------------6h7p6-----------------------------------|
D------7-7-----7-7-----------------------------------------|
A--5-5-----5-5---------------------------------------------|
E----------------------------------------------------------|

Guitar 2:(Guitar 1 continues playing the above riff for a while)
E----------------------------------------------------------|
B----------------------------------------------------------|
G--7---7-7-7-7---9-9-9---11-11-11---14-14-14---------------|
D--7---7-7-7-7---9-9-9---11-11-11---14-14-14---------------|
A--5---5-5-5-5---7-7-7----9--9--9---12-12-12---------------|
E----------------------------------------------------------|


E----------------------------------------------------------|
B----------------------------------------------------------|
G------7-7-7-7---9-9-9---11-11-11---14-14-14---------------|
D------7-7-7-7---9-9-9---11-11-11---14-14-14---------------|
A------5-5-5-5---7-7-7----9--9--9---12-12-12---------------|
E----------------------------------------------------------|
Suggest correction
Give kudos to tab author, rate the tab!
1 2 3 4 5
comments
print report bad tab
2 comments total.
0 reply
TayRayWebb 16 Jul 18, 2007 06:33 PM

not accurate, a little off from the actual song

0 reply
Sqbany 10 Jul 16, 2011 09:51 AM

try that
Guitar 1:

E----------------------------------------------------------|
B----------------------------------------------------------|
G------------------7h8p7-----------------------------------|
D------8-8-----8-8-----------------------------------------|
A--6-6-----6-6---------------------------------------------|
E----------------------------------------------------------|

i think it sounds better :)

guest
You may want to rate the tab now too:
select rating
Wanna post a correction for this tab? Suggest correction