Oops, an error
Loading. Please wait.

Hit The Lights Tab

version 1
version 1

Intro

Whole song

Interactive

4,675 views 6 this week
2 commentsread comments
1 2 3 4 5
accurate
x 3
add to favorites
launch autoscroll
font size
0
reset
how to read this tab
guitar tuner
Tab Pro tools
  • play this tab
  • loop segment
  • change instrument
  • show fretboard
  • metronome
Autoscroll
slow
fast
+/-
esc
set tempo
stop
Contributor
ok i finished it here is the whoel song. i hope u like it.

guitar 1 intro(play 8 times)
e|-----------------|
B|-----------4h5p4-|
G|---4-4--4-4------|
D|-22---22---------|
A|-----------------|
E|-----------------|

guitar 2 intro
e|------------------|
B|------------------|
G|-7~-----5~-----7~-|
D|-7~-----5~-----7~-|
A|-5~-----3~-----5~-|
E|------------------|

guitar 1 intro continued
e|----------------------------------------------------------------|
B|-9/11/13/15------------------------9/11/13/15-------------------|
G|-9/11/13/15---11-11-11-13-13-15-15-9/11/13/15---11-11-11-13-15~-|
D|-7/-9/11/13---11-11-11-13-13-15-15-7/-9/11/13---11-11-11-13-15~-|
A|---------------9--9--9-11-11-13-13---------------9--9--9-11-13~-|
E|----------------------------------------------------------------|

guitar 2 intro continued
e|-------------------------------------------------------------------|
B|-------------------------------------------------------------------|
G|-9/7/5/7--77777777/99999999/55555555-9/7/5/7--77777777/99999999/5~-|
D|-9/7/5/7--77777777/99999999/55555555-9/7/5/7--77777777/99999999/5~-|
A|-7/5/3/5--55555555/77777777/33333333-7/5/3/5--55555555/77777777/3~-|
E|-------------------------------------------------------------------|

guitar 1 verse(play throughout verse)2's r pm
e|------------|
B|------------|
G|---4----4-4-|
D|-22--2-2-2--|
A|------------|
E|------------|
   ..  . . .

guitar 2(play twice. second time there r no PMs though and hold the last one
e|-------------------------------------|
B|-------------------------------------|
G|-77777777/99999999/55555555/77777777-
D|-77777777/99999999/55555555/77777777-
A|-55555555/77777777/33333333/55555555-
E|-------------------------------------
    .......  .......  .......  ...
guitar 2 verse pt.2
e|----------------------------------------------------------|
B|----------------------------------------------------------|
G|-55555555/77777777/99999999/77777777/55555555/77777777/9~-
D|-55555555/77777777/99999999/77777777/55555555/77777777/9~-
A|-33333333/55555555/77777777/55555555/33333333/55555555/7~-
E|----------------------------------------------------------

both guitars chorus
e|-----------------------------------------|
B|-----------------------------------------|
G|-77777777/55555555/7777/9999999999999999-
D|-77777777/55555555/7777/9999999999999999-
A|-55555555/33333333/5555/7777777777777777-
E|-----------------------------------------
                              .. .. .. ..

chorus continued
e|---------------------------------------|
B|---------------------------------------|
G|-77777777/55555555/7777/9999/7777/5555-
D|-77777777/55555555/7777/9999/7777/5555-
A|-55555555/33333333/5555/7777/5555/3333-
E|---------------------------------------


then intro continued(same for both guitars)
the verse(exactly the same except for guitar 2 pt.2)

guitar 2 pt.2 verse 2
e|-------------------------------------------------------|
B|-------------------------------------------------------|
G|-55555555/77777777/99999999/77777777/55555555/77777777-
D|-55555555/77777777/99999999/77777777/55555555/77777777-
A|-33333333/55555555/77777777/55555555/33333333/55555555-
E|-------------------------------------------------------


guitar 2  verse 2 pt.2 continued
e|-----------------------|
B|-----------------------|
G|-9~--7~--77777777/9999-|
D|-9~--7~--77777777/7777-|
A|-7~--5~--55555555/7777-|
E|-----------------------|
           ........ ....

then chorus(same)

guitar 1 bridge(play 4 times)
e|----------------------------|
B|-9~----/11~----/13~----/15~-|
G|-9~----/11~----/13~----/15~-|
D|-7~----/-9~----/11~----/13~-|
A|----------------------------|
E|----------------------------|

guitar 2 bridge(play 4 times)
e|-------------------------|
B|-------------------------|
G|-9~----/7~----/5~----/7~-|
D|-9~----/7~----/5~----/7~-|
A|-7~----/5~----/3~----/5~-|
E|-------------------------|

last chorus both guitars
e|---------------------------------------------------------------|
B|---------------------------------------------------------------|
G|-5555/7777/9999/7777-77777777/55555555-5555/77777777/9999/7777-|
D|-5555/7777/9999/7777-77777777/55555555-5555/77777777/9999/7777-|
A|-3333/5555/7777/5555-55555555/33333333-3333/55555555/7777/5555-|
E|---------------------------------------------------------------|

guitar 1 outro
e|-------------
B|-9/11/13/15~-
G|-9/11/13/15~-
D|-7/-9/11/13~-|
A|-------------|
E|-------------|

guitar 2 outro
e|----------|
B|----------|
G|-9/7/5/7~-
D|-9/7/5/7~-
A|-7/5/3/5~-
E|----------
comments
We did not receive enough feedback on this tab! Please rate:
print report bad tab
1 2 3 4 5
2 comments total.
0 reply
atlfan69 wrote on November 8 2007, 04:17 pm

this tab is brutallll

0 reply
The_Hermanator wrote on March 6 2008, 11:46 pm

um... the intro sounds good but after that it sort of falls apart

I want to post or [tab]
guest
You may want to rate the tab now too:
select rating
Please do not post tabs as comments. Select "correction" instead!