Oops, an error
Loading. Please wait.

Holly Would You Turn Me On Bass Tab

version 2
version 2

Whole song

Interactive

648 views 1 this week
no commentswrite comment
1 2 3 4 5
please rate
add to favorites
launch autoscroll
font size
0
reset
guitar tuner
Autoscroll
slow
fast
+/-
esc
set tempo
stop
Help us to improve Ultimate-Guitar.com Take our survey!
×
Contributor
Difficulty
MusicMan24 3,308
novice
-------------------------------------------------------------------------------
			 Holly (Would You Turn Me On?) - All Time Low
-------------------------------------------------------------------------------

Tabbed By : MusicMan24
e-mail: a7t1r1@hotmail.com

I tabbed this song because I though the other version was kinda crappy.


Tuning: Standard  (EADG)


Intro x1 (1st note is a volume swell, so just strum it right when the song starts)

G|-----------------|
D|-----------------|
A|2~---------------|  0:00
E|-------2~-----0~-|

G|-----------------|
D|-----------------|
A|2~---------------|  0:10
E|-------2~-----0~-|

G|-----------------|
D|-----------------|
A|2~---------------|  0:20
E|-------2~-----0~-|

G|----------------------------------------------------------------------------------|
D|----------------------------------------------------------------------------------|
A|7777777777777--2222222222222222---------------------------------77777777-66666666-|
E|-------------------------------2222222222222222-4444444444444444------------------|


Verse 1 x2

G|---------------------------------------------------------------------|
D|---------------------------------------------------------------------|
A|4-444444--------2-222222-7-77-6-66-4-444444--------2-222222222222222-|
E|--------2-222222---------------------------2-222222------------------|
    xxxxxx  xxxxxx  xxxxxx   xx   xx   xxxxxx  xxxxxx  xxxxxxxx

Pre-Chorus

G|-------------|
D|-------------|
A|-------------|
E|4~---2~---0~-|


Chorus x2

G|--------------------------------------------------------------------|
D|--------------------------------------------------------------------|
A|22222222-------------------------------------------7777777777777777-|
E|--------22222222-0000000000000000-44444444-22222222-----------------|


Post-Chorus x1

G|-------------------------------------------------------------------|
D|-------------------------------------------------------------------|
A|2222222222222222---------------------------------77777777-66666666-|
E|----------------2222222222222222-4444444444444444------------------|


Verse 2 x1

G|-----------------------------------------------------------------------|
D|-----------------------------------------------------------------------|
A|44444444--------22222222-7777-6666-44444444--------2222222222222222--4-|
E|--------22222222---------------------------22222222--------------------|
  xxxxxxxxxxxxxxxxxxxxxxxx xxxx xxxx xxxxxxxxxxxxxxxxxxxxxxxx

G|------------------------------------------------------------|
D|------------------------------------------------------------|
A|--------22222222-7777-6666-44444444--------2222222222222222-|
E|22222222---------------------------22222222-----------------|


Pre-Chorus x1

G|--------------------------|
D|--------------------------|
A|--------------------------|
E|4~---2~---0~----0-0-0-0-0-|
                  x x x x 

Chorus x2


Bridge

G|----------------------------------------------------------------|
D|----------------------------------------------------------------|
A|----------------------------------------------------------------| x2
E|4-4-4-4-2-2-2-2-7-7-7-7-0-0-0-0-4-4-4-4-2-2-2-2-0-0-0-0-0-0-0-0-|

G|----------------------------------------------------|
D|----------------------------------------------------|
A|22----------------77--66--22------------------------|
E|-----22-----00------------------22-0000000000000000-|


Outro x1

G|--------------------------------------------------------------------|
D|--------------------------------------------------------------------|
A|22222222-------------------------------------------7777777777777777-|
E|--------22222222-0000000000000000-44444444-22222222-----------------|

G|----------------------------------------------------------------|
D|----------------------------------------------------------------|
A|22222222--------------------------------------------------------|
E|--------22222222-0000000000000000-44444444-22222222--0~~~~~~~~~-|

The only part I'm not 100% sure about is the chorus, but other than that,
I'm sure its 100% right

And the timing in the 1st verse may be a bit tricky to get down for someone
who's just starting out


PEACE


| /  slide up
| \  slide down
| h  hammer-on
| p  pull-off
| ~  vibrato
| +  harmonic
| x  Mute note
===============================================================================
Suggest correction What's this?
You can suggest a correction to this tab. Community and Mods will review your correction and vote to approve or reject it.
comments
We did not receive enough feedback on this tab! Please rate:
print report bad tab
1 2 3 4 5
I want to post or [tab]
guest
You may want to rate the tab now too:
select rating
Please do not post tabs as comments. Select "correction" instead!