Oops, an error
Loading. Please wait.

Holly Would You Turn Me On Tab

version 2
version 2

Whole song

Interactive

5,384 views 6 this week
no commentswrite comment
1 2 3 4 5
accurate
x 4
add to favorites
launch autoscroll
font size
0
reset
how to read this tab
guitar tuner
Autoscroll
slow
fast
+/-
esc
set tempo
stop
Help us to improve Ultimate-Guitar.com Take our survey!
×
Difficulty
Tuning
intermediate
D A D G B E
If you need help with this song, just look at this guy play it

http://www.youtube.com/watch?v=ddK4FN4c3PY&feature=related

Plus I was kinda too lazy to fill in some of the strumming, I'll leave that to you cuz 
pretty easy

otherwise enjoy it folks =)

All Time Low:
Holly Would You Turn Me On

Drop D: DADGBe
Alex’s Part
INTRO:
e|------------|“When ya gonna give it up....”
B|------------|
G|--4---------|
D|--4--4--2---|
A|--2--4--2---|
D|-----4--2---|

e|----------------|
B|----------------|
G|--4--------9--8-|
D|--4--4--6--x--x-|
A|--2--4--6--7--6-|
D|-----4--6-------|

VERSE:
(Palm Mute)
e|-----------------|“You are the taste of....”
B|-----------------|
G|-6---4-9-8-6---4-|
D|-6-4-4-9-8-6-4-4-|  X2
A|-4-4-2-7-6-4-4-2-|
D|---4---------4---|

PRE-CHORUS:
e|--------|“Too much of you....”
B|--------|
G|-8-11-9-|
D|-x-x--x-|
A|-6-9--7-|
D|--------|

CHORUS:
e|--------------------------------------------------|
B|--------------------------------------------------|
G|--6/-8/-6--9--9/-8--2-----------------------------|
D|--x/-x/-x--x--x--x--2--4--2-----------------------|
A|--4/-6/-4--7/-6--6--4--4--2-----------------------|
D|-----------------------4--2-----------------------|

-Then Intro, Verse, Chorus

BRIDGE:
e|-------------------------------------------|
B|-------------------------------------------|
G|--------------4444-------------------------|
D|--6666--4444--4444--2222--6666--4444--2222-|
A|--6666--4444--2222--2222--6666--4444--2222-|
D|--6666--4444--------2222--6666--4444--2222-|

e|---------------------------|
B|---------------------------|
G|-44----99--99--99-44-------|
D|-44-44-99--xx--99-44-44-22-|
A|-22-44-77--66/-77-22-44-22-|
D|----44---------------44-22-|

CHORUS
Jack’s Part
INTRO:
e|------------|“When ya gonna give it up....”
B|------------|
G|--4---------|
D|--4--4--2---|
A|--2--4--2---|
D|-----4--2---|

e|-----------------------------------|
B|-----------------------------------|
G|-11-15-16--11-18-20-18-16-15-16-11-|
D|-X--x--X---X--X--X--X--X--X--X--X--| X2
A|-9--13-14--9--16-18-16-14-13-14-9--|
D|-----------------------------------|

VERSE:
(Palm Mute)
e|-----------------|“You are the taste of....”
B|-----------------|
G|-6---4-9-8-6---4-|
D|-6-4-4-9-8-6-4-4-|
A|-4-4-2-7-6-4-4-2-|
D|---4---------4---|

RIFF:
e|---------|
B|--0--7---|
G|--------6|
D|---------|
A|---------|
D|---------|

PRE-CHORUS:
e|---------|“Too much of you....”
B|---------|
G|---------|
D|--6--4--2|
A|--6--4--2|
D|--6--4--2|

CHORUS:
e|--------------------|
B|--------------------|
G|-16-15-16-11-8-3-11-|
D|-X--X--X--X--X-X-X--| X2
A|-14-13-14-9--6-1-9--|
D|--------------------|

-Then Intro, Verse, Chorus

BRIDGE:
e|-------------------|
B|-------------------|
G|-4-3-11-8-6-8-6-11-|  X2
D|-X-X-X--X-X-X-X-X--|
A|-2-1-9--6-4-6-4-9--|
D|-------------------|

e|------------------|
B|------------------|
G|-4---9--9-9-4-----|
D|-4-4-9--X-9-4-4-2-|
A|-2-4-7--6-7-2-4-2-|
D|---4----------4-2-|

CHORUS
Suggest correction
What's this?
You can suggest a correction to this tab. Community and Mods will review your correction and vote to approve or reject it.
comments
print report bad tab
guest
You may want to rate the tab now too:
select rating
Please do not post tabs as comments. Select "correction" instead!