Oops, an error
Loading. Please wait.

Hometown Heroes And National Nobodies Tab

version 1
version 1

Whole song

Interactive

5,647 views 3 this week
2 commentsread comments
1 2 3 4 5
please rate
add to favorites
launch autoscroll
font size
0
reset
how to read this tab
guitar tuner
Tab Pro tools
  • play this tab
  • loop segment
  • change instrument
  • show fretboard
  • metronome
×
Best way to learn
"Hometown Heroes And National Nobodies"
Autoscroll
slow
fast
+/-
esc
set tempo
stop
Contributor
Hometown Heroes and National Nobodies by All TIme Low:
Drop D Tuning
Intro:
Guitar 1~ very faint
|-------------------------|
|-------------------------|
|-----999------999--------|x4
|-777------666-----7h9p7--|
|-------------------------|
|-------------------------|
Guitar 1 Cont.                          after 3x do this
|------------------------------|   |-------------------------|
|-101010-999-------------------|   |-101010-999-121212121212-|
|-----------999----------------|   |-------------------------|
|---------------999-9-10-9-----|X3 |-------------------------|
|--------------------------12--|   |-------------------------|
|------------------------------|   |-------------------------|

Guitar 2~
|-----------------------|
|-----------------------|
|-7---------------------|
|-7x16--2----4----7-----|x2
|-5-----2x16-4x16-7x16--|
|-------2----4----7-----|

pre-verse:
Guitar 1~
|---------------------------------------------------------|
|---------------------------------------------------------|
|-9-9--9999--9-9--9999--13-13--13131313--14-14--14141414--|
|-x-x--xxxx--x-x--xxxx---x--x---x-x-x-x---x--x---x-x-x-x--|
|-7-7--7777--7-7--7777--10-10--10101010--12-12--12121212--|
|---------------------------------------------------------|

Guitar 2~
|----------------------------------------------|
|----------------------------------------------|
|-7-7--7777--7-7--7777--7-7--7777--7-7--7777---|
|-7-7--7777--7-7--7777--7-7--7777--7-7--7777---|
|-5-5--5555--5-5--5555--5-5--5555--5-5--5555---|
|----------------------------------------------|

Verse:
Guitar 1~
|-------------------------------------------------|
|-------------------------------------------------|
|-9-----14-----13----9------7-77-7-77-7-77-77777--|
|-x-x16--x-x12--x-x4-x-x16--x-xx-x-xx-x-xx-xxxxx--|
|-7-----12-----11----7------5-55-5-55-5-55-55555--|
|-------------------------------------------------|
                              ..   ..   ..
Guitar 1 cont...
|-----------------------------------|
|-----------------------------------|
|-9-----14-----16----14-----7-------|
|-x-x16--x-x12--x-x8--x-x12-x-x16---|
|-7-----12-----14----12-----5-------|
|-----------------------------------|

Guitar 2~
|-----------------------------------------|
|-----------------------------------------|
|-----------------------------------------|
|-7-----2-----4-----0-00-0-00-0-00-00000--|
|-7-x16-2-x16-4-x16-0-00-0-00-0-00-00000--|
|-7-----2-----4-----0-00-0-00-0-00-00000--|
                      ..   ..   ..
Guitar 2 cont...
|--------------------------|
|--------------------------|
|--------------------------|
|-7-----2-----4-----0------|
|-7-x16-2-x16-4-x16-0-x16--|
|-7-----2-----4-----0------|

Pre-Chorus:
Guitar 1:
|----------------------------------|
|----------------------------------|
|---------------------------7------|
|---444444-22/444444-22/44--x-x16--|x2
|---444444-22/444444-22/44--5------|
|---444444-22/444444-22/44---------|

Guitar 1 cont...
|---------------------------|
|---------------------------|
|-----------77x777x777x777--|
|-2~~~-4~~~-xxxxxxxxxxxxxx--|x2
|-2~~~-4~~~-55x555x555x555--|
|-2~~~-4~~~-----------------|

Guitar 2~
|--------------------------------|
|--------------------------------|
|--------------------------------|
|---444444-22/444444-22/44--0----|x2
|---444444-22/444444-22/44--0x16-|
|---444444-22/444444-22/44--0----|

Guitar 2 cont...
|-----------------|
|-----------------|
|-----------------|
|-2~~~-4~~~-0~~~--|x2
|-2~~~-4~~~-0~~~--|
|-2~~~-4~~~-0~~~--|

Chorus:
Guitar 1~
|--------------------------------------|           |
|--------------------------------------|           |
|-7-----9-----141314-xx14-14x-14-14x---|           |
|-x-x8--x-x8---x-x-x-xx-x--xx--x--xx---|           |
|-5-----7-----121112-xx12-12x-12-12x---|           |
|--------------------------------------|           |
                                                   |
Guitar 1 cont...                                   |  X 2
|-------------------------------------------|      |
|-------------------------------------------|      |
|-7-----9-----1111x111111x111111x111111xx---|      |
|-x-x8--x-x8---x-xx-x-x-xx-x-x-xx-x-x-xxx---|      |
|-5-----7------9-9x-9-9-9x-9-9-9x-9-9-9xx---|      |
|-------------------------------------------|      |

Guitar 2~
|---------------------------|         |
|---------------------------|         |
|---------------------------|         |
|-0----2----424-xx4-4x-4-4x-|         |
|-0-x8-2-x8-424-xx4-4x-4-4x-|         |
|-0----2----424-xx4-4x-4-4x-|         |
                                      |
Guitar 2 cont...                      | X 2
|------------------------------|      |
|------------------------------|      |
|------------------------------|      |
|-0----2-----44x444x444x444xx--|      |
|-0-x8-2-x8--44x444x444x444xx--|      |
|-0----2-----44x444x444x444xx--|      |

Chorus Cont...
Guitar 1~
|-------------------|
|-------------------|
|-66x666x666x666xx--|
|-xxxxxxxxxxxxxxxx--|
|-44x444x444x444xx--|
|-------------------|

Guitar 2~
|-------------------|
|-------------------|
|-------------------|
|-44x444x444x444xx--|
|-44x444x444x444xx--|
|-44x444x444x444xx--|

Post Chorus:
Both Guitars~       2x un-palmute last 4 E's
|-----------------------------------|--------|
|-----------------------------------|--------|
|-----------------------------------|--------|
|-44-44-00-00-0000-22-22-22-22-2222-|--22222-|
|-44-44-00-00-0000-22-22-22-22-2222-|--22222-|
|-44-44-00-00-0000-22-22-22-22-2222-|--22222-|
  .. .. .. .. .... .. .. .. .. ....

Made a few corrections already...please comment and help me out cuz im learning this 
as I go too, I'm not quite done yet but alot of the rest of the song is repitition...
thanx for input :D
comments
We did not receive enough feedback on this tab! Please rate:
print report bad tab
1 2 3 4 5
2 comments total.
0 reply
CrmsnKtsne wrote on November 22 2009, 07:14 pm

God I love power chords...

Great tab!

0 reply
freshoj4u wrote on March 13 2011, 05:42 am

i need to play this on bass, im trying to decode it from yours to bass but i danno if im getting this right. help me out?

I want to post or [tab]
guest
You may want to rate the tab now too:
select rating
Please do not post tabs as comments. Select "correction" instead!