Oops, an error
Loading. Please wait.

I Cant Do The One-Two Step tab

version 2
version 2

Whole song

498 views 1 this week
3 commentsread comments
1 2 3 4 5
x 7
add to favorites
×
Save as Personal and add changes to this tab that will be seen only by you. Learn more ›
×
You can save this tab as Personal to edit and correct it or add notes. All changes will be seen only by you. Learn more »
launch autoscroll
font size
0
reset
how to read this tab
guitar tuner
edit
Autoscroll
slow
fast
+/-
esc
set tempo
stop
Artist: All Time Low
Song: I Can't Do The One-Two Step
Album: The Party Scene
Tabbed By: GuitarKid98 (Nathan S.)

The other tab was completely wrong.
This one is almost 100%.
Please enjoy.


(Intro) Part 1 (0:00-0:04)

Guitar 1 (Rhythm)

e|--------------------x-x--------------------|
B|--------------------x-x--------------------|
G|--6-6-6-6--6-6-6-6--x-x--6-6-6-6--6-6-6-6--|
D|--4-4-4-4--4-4-4-4--x-x--4-4-4-4--4-4-4-4--|
A|--6-6-6-6--6-6-6-6--x-x--6-6-6-6--6-6-6-6--|
D|--------------------x-x--------------------|


(Intro) Part 2 (0:05-0:10)

Guitar 1 (Rhythm)

e|--------------------------------------------------------------|
B|--------------------------------------------------------------|
G|--------------------------------------------------------------|
D|--8-6--6-6-6-6-6-6-6-6-6-6--8-4--4-4-4-4-4-4-4-4-4-4-4-4-4-4--|
A|--8-6--6-6-6-6-6-6-6-6-6-6--8-4--4-4-4-4-4-4-4-4-4-4-4-4-4-4--|
D|--8-6--6-6-6-6-6-6-6-6-6-6--8-4--4-4-4-4-4-4-4-4-4-4-4-4-4-4--|


(Intro) Part 3 (0:10-0:15)

Guitar 1 (Rhythm)

e|--------------------x-x--------------------|
B|--------------------x-x--------------------|
G|--6-6-6-6--6-6-6-6--x-x--6-6-6-6--6-6-6-6--|
D|--4-4-4-4--4-4-4-4--x-x--4-4-4-4--4-4-4-4--|
A|--6-6-6-6--6-6-6-6--x-x--6-6-6-6--6-6-6-6--|
D|--------------------x-x--------------------|


(Intro) Part 3

Guitar 2 (Lead)

e|--------------------------------------------------|
B|--------------------------------------------------|
G|--------11-11-11-11---11-11-11-11~---11-11-11-11--|
D|---------x--x--x--x----x--x--x--x~----x--x--x--x--|
A|---------9--9--9--9----9--9--9--9~----9--9--9--9--|
D|--------------------------------------------------|


(Intro) Part 4 (0:15-0:21)

Guitar 1 (Rhythm)

e|--------------------------------------------------------------|
B|--------------------------------------------------------------|
G|--------------------------------------------------------------|
D|--8-6--6-6-6-6-6-6-6-6-6-6--8-4--4-4-4-4-4-4-4-4-4-4-4-4-4-4--|
A|--8-6--6-6-6-6-6-6-6-6-6-6--8-4--4-4-4-4-4-4-4-4-4-4-4-4-4-4--|
D|--8-6--6-6-6-6-6-6-6-6-6-6--8-4--4-4-4-4-4-4-4-4-4-4-4-4-4-4--|


(Intro) Part 4

Guitar 2 (Lead)

e|---------------------------------------------------------|
B|---------------------------------------------------------|
G|--10-8--8-8-8-8-8-8-8-8-8-8--10-6--6-6-6-6-6--5-5-5-5-5--|
D|---x-x--x-x-x-x-x-x-x-x-x-x---x-x--x-x-x-x-x--x-x-x-x-x--|
A|---8-6--6-6-6-6-6-6-6-6-6-6---8-4--4-4-4-4-4--3-3-3-3-3--|
D|---------------------------------------------------------|


(Intro) Part 5 (0:21-0:23)

Guitar 1 (Rhythm)

e|-------------------|
B|-------------------|
G|--6-6-6-6-6-6-666--|
D|--4-4-4-4-4-4-444--|
A|--6-6-6-6-6-6-666--|
D|-------------------|


(Verse 1) Part 1 (0:24-0:42)

Guitar 1 & 2

e|---------------------------------------------------------------|
B|---------------------------------------------------------------|
G|---------------------------------------------------------------|
D|--6-6-6-6-6-6-6-6-6-6-6-6-6-6-6-9-9-9-9-9-9-9-9-9-9-9-9-9-9-9--|
A|--6-6-6-6-6-6-6-6-6-6-6-6-6-6-6-9-9-9-9-9-9-9-9-9-9-9-9-9-9-9--|
D|--6-6-6-6-6-6-6-6-6-6-6-6-6-6-6-9-9-9-9-9-9-9-9-9-9-9-9-9-9-9--|


e|---------x-x---------x-x--|
B|---------x-x---------x-x--|
G|---------x-x---------x-x--|
D|--44-66--x-x--66-99--x-x--|
A|--44-66--x-x--66-99--x-x--|
D|--44-66--x-x--66-99--x-x--|


e|--------------------------------------------------------------------|
B|--------------------------------------------------------------------|
G|--------------------------------------------------------------------|
D|--4-4-4-4-4-4-4-4-4-4-4-4-4-4-4-4--6-6-6-6-6-6-6-6-6-6-6-6-6-6-6-6--|
A|--4-4-4-4-4-4-4-4-4-4-4-4-4-4-4-4--6-6-6-6-6-6-6-6-6-6-6-6-6-6-6-6--|
D|--4-4-4-4-4-4-4-4-4-4-4-4-4-4-4-4--6-6-6-6-6-6-6-6-6-6-6-6-6-6-6-6--|


e|--------------------------------------------------------------------|
B|--------------------------------------------------------------------|
G|-----------------------------------6-6-6-6-6-6-6-6-6-6-6-6-6-6-6-6--|
D|--9-9-9-9-9-9-9-9-9-9-9-9-9-9-9-9--6-6-6-6-6-6-6-6-6-6-6-6-6-6-6-6--|
A|--9-9-9-9-9-9-9-9-9-9-9-9-9-9-9-9--4-4-4-4-4-4-4-4-4-4-4-4-4-4-4-4--|
D|--9-9-9-9-9-9-9-9-9-9-9-9-9-9-9-9-----------------------------------|


(Verse 1) Part 2 (0:43-1:13)

Guitar 1 (Rhythm)

Play eleven times.

e|------------------|
B|------------------|
G|--11-6--11-6--11--|
D|---x-x---x-x---x--|
A|---9-4---9-4---9--|
D|------------------|


Guitar 2 (Lead)

Play three times.

e|----------------------------------------------------------|
B|----------------------------------------------------------|
G|--11-10--11-10--11---11-10--11-10--11---11-13--11-13--11--|
D|---x--x---x--x---x----x--x---x--x---x----x--x---x--x---x--|
A|---9--8---9--8---9----9--8---9--8---9----9-11---9-11---9--|
D|----------------------------------------------------------|


e|--------------------|
B|--------------------|
G|--11-13--11-13--11--|
D|---x--x---x--x---x--|
A|---9-11---9-11---9--|
D|--------------------|


(Verse 1) Part 3 (1:15-1:18)

Guitar 1 (Rhythm)

e|---------------------------------------------------------------|
B|---------------------------------------------------------------|
G|--11--11--11--11--11--11--11--11--11--11--11--11--11--11--4-4--|
D|---x---x---x---x---x---x---x---x---x---x---x---x---x---x--4-4--|
A|---9---9---9---9---9---9---9---9---9---9---9---9---9---9--2-2--|
D|---------------------------------------------------------------|


(Verse 1) Part 3

Guitar 2 (Lead)

e|-----------------------------------------------------------------------|
B|-----------------------------------------------------------------------|
G|--11--11--11--11--11--11--11--13--13--13--13--13--13--13--13--13--4-4--|
D|---x---x---x---x---x---x---x---x---x---x---x---x---x---x---x---x--4-4--|
A|---9---9---9---9---9---9---9--11--11--11--11--11--11--11--11--11--2-2--|
D|-----------------------------------------------------------------------|


(Pre-Chorus 1) Part 1 (1:20-1:36)

Guitar 1 (Rhythm)

e|------------------------------------------------------------------|
B|------------------------------------------------------------------|
G|------------------------------------------------------------------|
D|--6-6-6-6-6-6-6-6-6-6-6-6-6-6-6--4-4-4-4-4-4-4-4-4-4-4-4-4-4-4-4--|
A|--6-6-6-6-6-6-6-6-6-6-6-6-6-6-6--4-4-4-4-4-4-4-4-4-4-4-4-4-4-4-4--|
D|--6-6-6-6-6-6-6-6-6-6-6-6-6-6-6--4-4-4-4-4-4-4-4-4-4-4-4-4-4-4-4--|


e|--------------------------------------------------|
B|--------------------------------------------------|
G|--6-6-6-6-6-6-6-6-6-6-6-6-6-6-6--4-4-4-4-4-4-4-4--|
D|--6-6-6-6-6-6-6-6-6-6-6-6-6-6-6--2-2-2-2-2-2-2-2--|
A|--4-4-4-4-4-4-4-4-4-4-4-4-4-4-4--2-2-2-2-2-2-2-2--|
D|--------------------------------------------------|


e|-------------------------------------------------------------------|
B|-------------------------------------------------------------------|
G|-----------------------------------6-6-6-6-6-6-6-6-6-6-6-6-6-6-6--6|
D|--4-4-4-4-4-4-4-4-4-4-4-4-4-4-4-4--6-6-6-6-6-6-6-6-6-6-6-6-6-6-6--6|
A|--4-4-4-4-4-4-4-4-4-4-4-4-4-4-4-4--4-4-4-4-4-4-4-4-4-4-4-4-4-4-4--4|
D|--4-4-4-4-4-4-4-4-4-4-4-4-4-4-4-4----------------------------------|


(Pre-Chorus 1) Part 1

Guitar 2 (Lead)

e|------9------------------------------------------------------------------|
B|--6-7--------------------------------------------------------------------|
G|-------------------------------------------------------------------------|
D|---------6-6-6-6-6-6-6-6-6-6-6-6-6-6-6--4-4-4-4-4-4-4-4-4-4-4-4-4-4-4-4--|
A|---------6-6-6-6-6-6-6-6-6-6-6-6-6-6-6--4-4-4-4-4-4-4-4-4-4-4-4-4-4-4-4--|
D|---------6-6-6-6-6-6-6-6-6-6-6-6-6-6-6--4-4-4-4-4-4-4-4-4-4-4-4-4-4-4-4--|


e|---------------------------------|
B|---------------------------------|
G|--6-6-6-6-6-6-6-6-6-6-6-6-6-6-6--|
D|--6-6-6-6-6-6-6-6-6-6-6-6-6-6-6--|
A|--4-4-4-4-4-4-4-4-4-4-4-4-4-4-4--|
D|---------------------------------|


e|--------------------------------------------|
B|--------------14--------------14--------14--|
G|--10-11-10--------10-11-10--------10-11-----|
D|-----------11--------------11---------------|
A|--------------------------------------------|
D|--------------------------------------------|


e|--------------------------------------------|
B|--------------14--------------14--------14--|
G|--13-15-13--------13-15-13--------13-15-----|
D|-----------16--------------16---------------|
A|--------------------------------------------|
D|--------------------------------------------|


e|-------------------------------------------------------|
B|--14-12----12-------14-12----12-------14-12------------|
G|--------15----11-13-------15----11-13-------11-13---6--|
D|----------------------------------------------------6--|
A|----------------------------------------------------4--|
D|-------------------------------------------------------|


(Chorus 1) Part 1 (1:39-2:00)

Guitar 1 (Rhythm)

Play twice.

e|----------------------------------|
B|----------------------------------|
G|------------------4-------6-------|
D|--4-------6-------4(x16)--6(x16)--|
A|--4(x16)--6(x16)--2-------4-------|
D|--4-------6-----------------------|


(Chorus) Part 1

Guitar 2 (Lead)

Play twice.

e|-------------------|
B|-------------------|
G|--6-------11-------|
D|--x(x32)---x(x32)--|
A|--4--------9-------|
D|-------------------|


(Verse 2) Part 1 (2:01-2:11)

Guitar 1 & 2

e|----------------------------------------------------------|
B|----------------------------------------------------------|
G|--6--6--6--6--6--6--6-6-6---------------------------------|
D|--6--6--6--6--6--6--6-6-6--4~-----------------------------|
A|--4--4--4--4--4--4--4-4-4--4~--4-4-4-4--4--4-4-4-4-4-4-4--|
D|---------------------------4~--4-4-4-4--4--4-4-4-4-4-4-4--|
                                 * * * *  *  * * * * * * *


e|---------------------------------------------------------|
B|---------------------------------------------------------|
G|-----------------------------------------------4-4-4-4~--|
D|-----------------------------4-4-4-4--4--4-4-4-4-4-4-4~--|
A|--6-6-6-6--6--6-6-6-6-6-6-6--2-2-2-2--2--2-2-2-2-2-2-2~--|
D|--6-6-6-6--6--6-6-6-6-6-6-6--*-*-*-*--*--*-*-*-*-*-*-*---|
    * * * *  *  * * * * * * *


(Verse 2) Part 2 (2:12-2:27)

Guitar 1 & 2

e|---------x-x---------x-x--|---------------------------------------|
B|---------x-x---------x-x--|---------------------------------------|
G|---------x-x---------x-x--|----------4---------------6-------6-6--|
D|--44-66--x-x--66-99--x-x--|--6-------4(x12)--6-------6(x12)--6-6--|
A|--44-66--x-x--66-99--x-x--|--6(x12)--2-------6(x12)--4-------4-4--|
D|--44-66--x-x--66-99--x-x--|--6---------------6--------------------|


Repeat (Pre-Chorus) (2:29-2:46)


Repeat (Chorus) (2:48-3:09)


(Bridge) (3:11-3:41)

Guitar 1 (Rhythm)

e|-------------------------------|--------------|
B|-------------------------------|--------------|
G|--11-6--11-6--11------11-------|--------------|
D|---x-x---x-x---x(x9)---x(x13)--|--4-4-4--6-6--|
A|---9-4---9-4---9-------9-------|--4-4-4--6-6--|
D|-------------------------------|--4-4-4--6-6--|


Guitar 2 (Lead) 

e|----------------------------------------------------------|
B|----------------------------------------------------------|
G|--11-10--11-10--11---11-10--11-10--11---11-13--11-13--11--|
D|---x--x---x--x---x----x--x---x--x---x----x--x---x--x---x--|
A|---9--8---9--8---9----9--8---9--8---9----9-11---9-11---9--|
D|----------------------------------------------------------|


e|------------------------------------------------------------|
B|------------------------------------------------------------|
G|--11-13--11-13--11---11-10--11-10--11---11--10--11--10--11--|
D|---x--x---x--x---x----x--x---x--x---x----x---x---x---x---x--|
A|---9-11---9-11---9----9--8---9--8---9----9---8---9---8---9--|
D|------------------------------------------------------------|


e|------------------|------------|
B|------------------|------------|
G|--11------13------|--6-6-6--6--|
D|---x(x8)---x(x7)--|--x-x-x--x--|
A|---9------11------|--4-4-4--4--|
D|------------------|------------|


(Last Chorus) (3:44-3:58)

Guitar 1 & 2

e|------------------------------------------|-----|
B|------------------------------------------|-----|
G|--4-------6-----------------------4-------|--6--|
D|--4(x16)--6(x16)--4-------6-------4(x16)--|--6--|
A|--2-------4-------4(x16)--6(x16)--2-------|--4--|
D|------------------4-------6---------------|-----|
Suggest correction
Creating personal tab
Creating personal tab
You can edit any tab online and save it as your Personal.

You can edit, replace or remove any tab part or add personal notes – all changes will be seen only by you.

Personal tabs can be accessed anytime from any device, even offline.
Learn more »
comments
print report bad tab
3 comments total.
0 reply
VoteMaster 10 Jun 10, 2013 09:00 AM

Finally a tab for this song that's actually 100% right. The other one was really bad. Good job dude.

0 reply
alltimelowfan1 10 Jun 10, 2013 09:06 AM

Sweet. I've been wanting to learn this for a long time, but the other tab sucked. Haha. Thanks.

guest
You may want to rate the tab now too:
select rating
Wanna post a correction for this tab? Suggest correction