Oops, an error
Loading. Please wait.

I Feel Like Dancing Bass Tab

version 1
version 1

Whole song

Interactive

9,684 views 15 this week
1 commentread comment
1 2 3 4 5
excellent!
x 8
add to favorites
launch autoscroll
font size
0
reset
guitar tuner
Tab Pro tools
  • play this tab
  • loop segment
  • change instrument
  • show fretboard
  • metronome
×
Best way to learn
"I Feel Like Dancing"
Autoscroll
slow
fast
+/-
esc
set tempo
stop
Contributor
Difficulty
novice
There wasn't a bass tab, so I thought I'd post one seeing as though I had
figured it out. I'm pretty sure it's correct because it sounds fine with the
song, but any improvements or anything, tell me via comments. This is my
first tab, so don't be too harsh! :]


Intro: 
|----------------------------------|
|----------------------------------|
|-7-7----7-7----7-7----7-7----3-2--|
|----------------------------------|


Verse 1:
|-----------------------------------------------------|
|-----------------------------------------------------|
|-7-7----7-7----7-7----7-7----7-7----7-7----0-0----3-2| x2
|-----------------------------------------------------|



Pre chorus: 
|----------------------------|
|----------------------------|
|------------0000--------2222|
|-22222222-------------------|



Chorus:
|-------------------------|-------------------------|
|-------------------------|-------------------------|
|-7-7----2-2----0-0----0-0|-7-7----2-2----0-0----3-2|
|-------------------------|-------------------------|

|-------------------------|-----------------|
|-------------------------|-----------------|
|-7-7----2-2----0-0----0-0|-4-4----2-2---7-7|
|-------------------------|-----------------|


Repeat intro.


Verse 2:
|-----------------------------------------------------|
|-----------------------------------------------------|
|-7-7----7-7----7-7----7-7----7-7----7-7----0-0----3-2| x2
|-----------------------------------------------------|


Pre chorus: 
|------------------------|
|------------------------|
|------------0000----2222|
|-22222222---------------|



Chorus:
|-------------------------|-------------------------|
|-------------------------|-------------------------|
|-7-7----2-2----0-0----0-0|-7-7----2-2----0-0----3-2|
|-------------------------|-------------------------|

|------------------------|-----------------|
|------------------------|-----------------|
|-7-7----2-2----0-0---0-0|-4-4----2-2---7-7|
|------------------------|-----------------|


Bridge:
|-------------------------------------------------------------------------|
|-------------------------------------------------------------------------|
|4~--------0~--------4~--------0~--------77777777----------------00000000x|
|----------------------------------------------------22222222-------------|



Chorus:
|-------------------------|-------------------------|
|-------------------------|-------------------------|
|-7-7----2-2----0-0----0-0|-7-7----2-2----0-0----3-2|
|-------------------------|-------------------------|

|------------------------|-----------------|
|------------------------|-----------------|
|-7-7----2-2----0-0---0-0|-4-4----2-2---7-7| x2
|------------------------|-----------------|



And you're done, pretty simple song, but it's awesome :]
comments
print report bad tab
1 comment total.
0 reply
kenziethomas13 wrote on December 22 2012, 08:45 pm

great tab. nice job :)

I want to post or [tab]
guest
You may want to rate the tab now too:
select rating
Please do not post tabs as comments. Select "correction" instead!