Oops, an error
Loading. Please wait.

I Feel Like Dancing Bass Tab

version 2
version 2

Whole song

Interactive

3,831 views 3 this week
no commentswrite comment
1 2 3 4 5
excellent!
x 2
add to favorites
launch autoscroll
font size
0
reset
guitar tuner
Tab Pro tools
  • play this tab
  • loop segment
  • change instrument
  • show fretboard
  • metronome
Autoscroll
slow
fast
+/-
esc
set tempo
stop
Contributor
Tuning
D A D G B E
-------------------------------------------------------------------------------
			     I FEEL LIKE DANCIN' - All Time Low.
-------------------------------------------------------------------------------

Tabbed By : mariewong.





Tuning: Drop D.





Chorus [00:31]

G|----------------------------------------------------------------|
D|----------------------------------------------------------------|
A|----------------------------------------------------------------|
D|--\2-2---9-9---7-7---7-7----2-2---9-9---7-7---10-10-10-10-10-9--|

G|--------------------------------------------------|
D|--------------------------------------------------|
A|----------2-2-2-2---0-0-0-0--0--3---4-4---2-2-----|
D|--2-2-4-6--------------------------------------1--|



Verse [00:54]

G|---------------|
D|---------------|
A|--3-3-3-3-3-2--|
D|---------------|

G|---------------------------------------------------------------|
D|---------------------------------------------------------------|
A|--------------------------------------------0-0---3-3-3-3-3-2--|   [x2]
D|--2-2---2-2-2---2-2---2-2-2---2-2---2-2-2----------------------|

G|-----------------------------------|
D|-----------------------------------|
A|------------------0-0-0-0-2-2-2-2--|
D|--4-4-4-4-4-4-4-4------------------|



Chorus [01:21]

G|--------------------------------------------------------------------|
D|--------------------------------------------------------------------|
A|--------------------------------------------------------------------|
D|--\2-2---9-9---7-7---7-7--99----2-2---9-9---7-7---10-10-10-10-10-9--|

G|--------------------------------------------------|
D|--------------------------------------------------|
A|----------2-2-2-2---0-0-0-0--0--3---4-4---2-2-----|
D|--2-2-4-6--------------------------------------1--|


G|-----------------------|
D|-----------------------|
A|----------3-3-3-3-3-2--|
D|--2-2---2--------------|



Bridge [01:44]

G|-----------------------------------------------------|
D|-----------------------------------------------------|
A|--4~---0~---4~---0~----------------------------------|
D|-----------------------2(x8)----4(x8)----7(x16)--7\--|



Chorus [02:04]

G|--------------------------------------------------------------------|
D|--------------------------------------------------------------------|
A|--------------------------------------------------------------------|
D|--2-2---9-9---7-7---777-99-9----2-2---9-9---7-7---10-10-10-10-10-9--|

G|--------------------------------------------------------------|
D|--------------------------------------------------------------|
A|----------2-2-2-2-4--0-0-0-0--0--3---4-4---2-2----------------|
D|--2-2-4-6--------------------------------------1---2-2---2-2--|

G|--------------------------------------------------------------------|
D|--------------------------------------------------------------------|
A|--------------------------------------------------------------------|
D|--2-2---9-9---7-7---777-99-9----2-2---9-9---7-7---10-10-10-10-10-9--|

G|--------------------------------------------------------|
D|--------------------------------------------------------|
A|----------2-2-2-2-4--0-0-0-0--0--3---4-4-4-4---2-2-2-2--|
D|--2-2-4-6-----------------------------------------------|

G|------------------------------------------------|
D|------------------------------------------------|
A|--0(x8)---------------------------3-3-3-3-3-2\--|
D|----------4-4-4-4-7~----------------------------|





| /  slide up
| \  slide down
| h  hammer-on
| p  pull-off
| ~  vibrato
| +  harmonic
| x  Mute note
===============================================================================
comments
We did not receive enough feedback on this tab! Please rate:
print report bad tab
1 2 3 4 5
I want to post or [tab]
guest
You may want to rate the tab now too:
select rating
Please do not post tabs as comments. Select "correction" instead!