Oops, an error
Loading. Please wait.

I Feel Like Dancing Bass Tab

version 3
version 3

Whole song

Interactive

1,505 views 1 this week
no commentswrite comment
1 2 3 4 5
please rate
add to favorites
launch autoscroll
font size
0
reset
guitar tuner
Autoscroll
slow
fast
+/-
esc
set tempo
stop
Help us to improve Ultimate-Guitar.com Take our survey!
×
Difficulty
Tuning
novice
D A D G B E
I Feel Like Dancin' Bass tab

NOTE: Feel Free to copy/Paste and re-write 
this tab, this is the result of myself writing 
the tabs 2 months ago when the single was 
released so enjoy! Email if there are any changes 
you wish to make. Have fun (:

thechannelof8@gmail.com
Myles Jeffries

Intro 

G|----------------------------------------------------------------|
D|----------------------------------------------------------------|   x2
A|-------------------------------------------33333/2--------------|
D|----------------------------------------------------------------|




Pre chorus: 
|----------------------------|
|----------------------------|
|------------0000--------2222|
|---4444---------------------|



Chorus 

G|--------------------------------------------------------------------|
D|--------------------------------------------------------------------|
A|--/7-7---2-2---0-0---0033----/77---2-2---0-0---33333/2--------------|
D|--------------------------------------------------------------------|

G|--------------------------------------------------|
D|--------------------------------------------------|
A|--7777---2222---000000--33--4-4---2-2----0-0------|
D|--------------------------------------------------|

G|----------------------------------------------------------------|
D|----------------------------------------------------------------|   
A|-------------------------------------------33333/2--------------|
D|----------------------------------------------------------------|

Verse 

G|----------------------------------------------------------------|
D|----------------------------------------------------------------|   x2
A|-------------------------------------------33333/2--------------|
D|----------------------------------------------------------------|

Pre chorus: 
|----------------------------|
|----------------------------|
|------------0000--------2222|
|---4444---------------------|


Chorus 

G|--------------------------------------------------------------------|
D|--------------------------------------------------------------------|
A|--/7-7---2-2---0-0---0033----/77---2-2---0-0---33333/2--------------|
D|--------------------------------------------------------------------|

G|--------------------------------------------------|
D|--------------------------------------------------|
A|--7777---2222---000000--3----4-4---2-2----00------|
D|--------------------------------------------------|




Bridge 

G|-----------------------------------------------------|
D|-----------------------------------------------------|
A|--4~---0~---4~/---12~--------------------------------|
D|---------------------------4(x16)----7(x16)-7~-------|




Chorus 

G|--------------------------------------------------------------------|
D|--------------------------------------------------------------------|
A|--/7-7---2-2---0-0---0033----/77---2-2---0-0---33333/2--------------|
D|--------------------------------------------------------------------|

G|--------------------------------------------------|
D|--------------------------------------------------|
A|--7777---2222---000000--33--4-4---2-2----00-------|
D|--------------------------------------------------|


G|--------------------------------------------------------------------|
D|--------------------------------------------------------------------|
A|--/7-7---2-2---0-0---0033----/77---2-2---0-0---33333/2--------------|
D|--------------------------------------------------------------------|

G|--------------------------------------------------|
D|--------------------------------------------------|
A|--7777---2222---000000--33--4-4-4-4-4-4-0-0-0~----|
D|--------------------------------------------------|

(fade out)


G|----------------------------------------------------------------|
D|----------------------------------------------------------------|   
A|-------------------------------------------33333/2--------------|
D|----------------------------------------------------------------|
Suggest correction
Give kudos to tab author, rate the tab!
1 2 3 4 5
comments
print report bad tab
guest
You may want to rate the tab now too:
select rating
Wanna post a correction for this tab? Suggest correction