Oops, an error
Loading. Please wait.

Jasey Rae Acoustic Tab

version 2
version 2

Whole song

63,416 views 39 this week
2 commentsread comments
1 2 3 4 5
excellent!
x 11
add to favorites
launch autoscroll
font size
0
reset
how to read this tab
guitar tuner
Tab Pro tools
  • play this tab
  • loop segment
  • change instrument
  • show fretboard
  • metronome
×
Best way to learn
"Jasey Rae Acoustic"
Autoscroll
slow
fast
+/-
esc
set tempo
stop
Difficulty
novice
Jasey Rae by the All Time Low
Punk Goes Acoustic 2

Includes the piano intro. Look in guitar 2 section.

The other acoustic version didn't have the intro. So i've provided it here.
Any questions just email at thebrainfreezymachine@gmail.com
Please rate and comment

--Guitar 1--

Intro

These are the chords. Listen to the song and follow along. Its not that hard.
e|-----------------------------------------------------|
B|-----------------------------------------------------|
G|--7-----7-----11----9-----7-----7--------------------|
D|--0-x32-5-x32-9-x16-7-x16-5-x32-0-[let ring]---------|
A|--0-----5-----9-----7-----5-----0--------------------|
D|--0-----5-----9-----7-----5-----0--------------------|

Verse
Listen for the strumming. Add some mutes here and there.

just quickly strum this chord a few times at beginning of verse

e|------|
B|------|
G|--7---|
D|--0---|
A|--0---|
D|--0---|

Start when singing "these images.."
e|-----------------------------------------------------|
B|-----------------------------------------------------|
G|--11---9----7----9-----------------------------------|
D|--9----7----5----7-----------------------------------| x2
A|--9----7----5----7-----------------------------------|
D|--9----7----5----7-----------------------------------|


Chorus

e|-----------------------------------------------------|
B|-----------------------------------------------------|
G|--7----9----7----9----11---9----7----9---------------|
D|--0----0----0----0----0----0----0----0---------------|
A|--0----7----5----7----9----7----5----7---------------|
D|--0----7----5----7----9----7----5----7---------------|


Post Chorus
e|------------------------------|
B|------------------------------|
G|--7------7--------------------|
D|--0-x32--5-let-ring-----------|
A|--0------5--------------------|
D|--0------5--------------------|

Repeat Verse

Repeat Chorus

Bridge
Listen for rhythym

Part 1
"I've never told a lie, and that makes me a liar"
e|-----------------------------------------------------|
B|-----------------------------------------------------|
G|--11---9----7----9-----------------------------------| x4
D|--9----7----5----7-----------------------------------|
A|--9----7----5----7-----------------------------------|
D|--9----7----5----7-----------------------------------|

Part 2
"wait outside" play this part louder and a bit faster
e|-----------------------------------------------------|
B|-----------------------------------------------------|
G|--11---9----7----9-----------------------------------| x3
D|--9----7----5----7-----------------------------------|
A|--9----7----5----7-----------------------------------|
D|--9----7----5----7-----------------------------------|

--Guitar 2--
Intro - Piano transcribed for guitar.

e|------------------------------------------------------|
B|--15--------15--------15------------------------------|
G|-----14-12-----14-12-----14---------------------------| x4
D|------------------------------------------------------|
A|------------------------------------------------------|
D|------------------------------------------------------|

e|------------------------------------------------------|
B|------------------------------------------------------|
G|-11-11-11--9-9-9h11p7-9-11-14--7-9--11-14\7~~---------|
D|-9--9--9---7-7-7-9--5-7-9--12--5-7--9--12\5~~---------|
A|-9--9--9---7-7-7-9--5-7-9--12--5-7--9--12\5~~---------|
D|-9--9--9---7-7-7-9--5-7-9--12--5-7--9--12\5~~---------|

Alternatively, you can pick these notes.

e|------------------------------------------------------|
B|------------------------7-10-----7-10-----------------|
G|-11-11-11--9-9-9h11p7-9------7-9----------------------|
D|------------------------------------------------------|
A|------------------------------------------------------|
D|------------------------------------------------------|


Verse
Same as Guitar 1


Chorus
Same as Guitar 1


Post Chorus

e|------------------------------------------------------|
B|--15--------15--------15------------------------------|
G|-----14-12-----14-12-----14---------------------------| x2
D|------------------------------------------------------|
A|------------------------------------------------------|
D|------------------------------------------------------|


Repeat Verse

Repeat Chorus

Bridge
I can't figure out the piano parts, just play the same thing Guitar 1 plays.
comments
print report bad tab
2 comments total.
0 reply
tco3887 wrote on March 6 2008, 01:21 am

tune it to DADGAD, rather than drop d. it's how they play it and it sounds better. the tab is fine the way it is if you do that.

0 reply
alltimelowrocks wrote on April 20 2009, 03:31 pm

yea if you tune to DADGAD the tab is right. the only problem/correction i have is in the bridge. when it says "wait outside", the third chord should be changed to 000700 instead of 555700. thats my opinion but i think it sounds right. and then end on the 000700.

I want to post or [tab]
guest
You may want to rate the tab now too:
select rating
Please do not post tabs as comments. Select "correction" instead!