Oops, an error
Loading. Please wait.

Jasey Rae Tab

version 3
version 3

Acoustic

Whole song

Interactive

23,353 views 15 this week
3 commentsread comments
1 2 3 4 5
excellent!
x 12
add to favorites
launch autoscroll
font size
0
reset
how to read this tab
guitar tuner
Autoscroll
slow
fast
+/-
esc
set tempo
stop
Help us to improve Ultimate-Guitar.com Take our survey!
×
Author
Artist: All Time Low
Song  : Jasey Rae (Acoustic)

I tabbed this by watching the MTV Unplugged video on youtube. I know that it
is 100% how Zack plays it. Here is the video to help you out with strumming
and timing: http://www.youtube.com/watch?v=jPjvgYejlJI
Enjoy the tab and please rate/ comment!

Intro:
C#|-0000-0000-0-0-0-0--0-0-0-0--0000-00--0--0--0--0---00--0--0--0--0---|
G#|-0000-0000-0-0-0-0--0-0-0-0--0000-0-0--0--0--0--0--0-0--0--0--0--0--|
F#|-7777-7777-11111111-11111111-9999-7~-7--7--7--7--7-6~-6--6--6--6--6-|
C#|-5555-4444-0-0-0-0--9-9-9-9--7777-5~---------------4~---------------|
G#|-5555-5555-0-0-0-0--9-9-9-9--7777-5~---------------4~---------------|
C#|-5555-xxxx-0-0-0-0--9-9-9-9--7777-5~---------------4~---------------|

Verse 1:
     "Lights out, I still hear the rain..."
C#|-0~~~0-------0-0-0-0--0000-0000-0000-0-0-0-0--0000-0000-000x-|
G#|-0~~~0-------0-0-0-0--0000-0000-0000-0-0-0-0--0000-0000-000x-|
F#|-11~~11-Rest-11111211-9999-7777-9999-11111211-9999-7777-666x-|
C#|-0~~~11------9-9-9-9--7777-5555-7777-9-9-9-9--7777-5555-xxxx-|
G#|-0~~~0-------9-9-9-9--7777-5555-7777-9-9-9-9--7777-5555-777x-|
C#|-0~~~0-------9-9-9-9--7777-5555-7777-9-9-9-9--7777-5555-777x-|

Chorus 1:
"Don't make this easy, I want you to mean it..."
C#|-0000-0000-0000-0000-0000-0000-0000-0000-|
G#|-0000-0000-0000-0000-0000-0000-0000-0000-|
F#|-9967-9999-7777-7799-9967-9999-7777-7799-|
C#|-0000-7777-5555-5577-0000-7777-5555-5577-|
G#|-0000-7777-5555-5577-0000-7777-5555-5577-|
C#|-0000-7777-5555-5577-0000-7777-5555-5577-|

Fill:
C#|-0--0--0--0--0-----0-0-0-0---|
G#|-0--0--0--0--0-----0-0-0-0---|
F#|-11-12-14-12-11/12-2-7-6-6/4-|
C#|-0--0--0--0--0-----0-0-0-0---|
G#|-0--0--0--0--0-----0-0-0-0---|
C#|-0--0--0--0--0-----0-0-0-0---|

Verse 2:
"Now there's an aching in my back..."
C#|-0000-0000-0000-0000-|       |-0000-000x-|
G#|-0000-0000-0000-0000-|       |-0000-000x-|
F#|-4444-6666-7777-6666-|       |-4444-666x-|
C#|-xxxx-xxxx-0000-xxxx-|x2 then|-xxxx-xxxx-|
G#|-5555-7777-xxxx-7777-|       |-5555-777x-|
C#|-5555-7777-9999-7777-|       |-5555-777x-|

Chorus 2:
"Don't make this easy, I want you to mean it..."
C#|-0000-0000-0000-0000-0000-0000-0000-0000-|
G#|-0000-0000-0000-0000-0000-0000-0000-0000-|
F#|-9967-9999-7777-7799-9967-9999-7777-7799-|
C#|-0000-7777-5555-5577-0000-7777-5555-5577-|
G#|-0000-7777-5555-5577-0000-7777-5555-5577-|
C#|-0000-7777-5555-5577-0000-7777-5555-5577-|

Bridge/ Breakdown/ Ending:
"I've never told a lie, and that makes me a liar..."
C#|-0000-0000-0000-0000-|        |-0000-0000-|
G#|-0000-0000-0000-0000-|        |-0000-0000-|
F#|-4444-2222-7777-6666-|        |-7777-7777-|  Cont'd
C#|-xxxx-0000-0000-xxxx-|x4 then |-5555-4444-|
G#|-5555-xxxx-xxxx-7777-|        |-5555-5555-|
C#|-5555-4444-9999-7777-|        |-5555-xxxx-|

C#|-0-0-0-0--0-0-00-0000-0000-0-0-0-0--0-0-00-|
G#|-0-0-0-0--0-0-00-0000-0000-0-0-0-0--0-0-00-|
F#|-11111111-111199-7777-7777-11111111-111199-| Cont'd
C#|-0-0-0-0--9-9-77-5555-4444-0-0-0-0--9-9-77-|
G#|-0-0-0-0--9-9-77-5555-5555-0-0-0-0--9-9-77-|
C#|-0-0-0-0--9-9-77-5555-xxxx-0-0-0-0--9-9-77-|

C#|-00--0--0--0--0---00--0--0--0--0---0~~~~-|
G#|-0-0--0--0--0--0--0-0--0--0--0--0--0~~~~-|
F#|-7~-7--7--7--7--7-6~-6--6--6--6--6-11~~~-|
C#|-5~---------------4~---------------0~~~~-|
G#|-5~---------------4~---------------0~~~~-|
C#|-5~---------------4~---------------0~~~~-|

Enjoy! Please rate/ comment!
Suggest correction
What's this?
You can suggest a correction to this tab. Community and Mods will review your correction and vote to approve or reject it.
comments
print report bad tab
3 comments total.
0 reply
shalfeyka 11 wrote on April 15 2013, 02:52 pm

This is awesome, thank you so much!

0 reply
raphael_20 11 wrote on May 6 2014, 11:49 am

what is the strumming pattern??

0 reply
gracie.h.perry 11 wrote on March 23 2016, 01:34 pm

What about the Video? It's no longer posted?

guest
You may want to rate the tab now too:
select rating
Please do not post tabs as comments. Select "correction" instead!