Oops, an error
Loading. Please wait.

Jasey Rae Tab

version 2
version 2

Intro

Whole song

Interactive

17,896 views 3 this week
2 commentsread comments
1 2 3 4 5
accurate
x 5
add to favorites
launch autoscroll
font size
0
reset
how to read this tab
guitar tuner
Tab Pro tools
  • play this tab
  • loop segment
  • change instrument
  • show fretboard
  • metronome
×
Best way to learn
"Jasey Rae"
Autoscroll
slow
fast
+/-
esc
set tempo
stop
Contributor
Difficulty
novice
JASEY RAE BY ALL TIME LOW TAB

i saw the other intro tab for this song, but it didn't give the entire tab.
im pretty sure this one is 100% correct

-----------------------------------------------|
----15------------ 15-----------15-------------|
--------14—12------14 12-----14----------------|  [x4]
-----------------------------------------------|
-----------------------------------------------|
-----------------------------------------------|

----14---------14-----------14-----------------|
--------15------------15--------15-------------|
-------------14------------14------------------|
-----------------------------------------------|
-----------------------------------------------|
-----------------------------------------------|


----12--10-------12--10-------12---10----------|
-------------10-----------10-------------------|
-----------------------------------------------|
-----------------------------------------------|
-----------------------------------------------|
-----------------------------------------------|


--10---12--14--17--10---12--14--17--10----------|
------------------------------------------------|
------------------------------------------------| [x2]
------------------------------------------------|
------------------------------------------------|
------------------------------------------------|
comments
print report bad tab
2 comments total.
0 reply
mikeweidner38 wrote on October 6 2007, 12:23 am

this is great. idk but i think u just did the piano part of the acoustic version. everything sounds just about right except the ending. the last part u have down.

0 reply
brc0488 wrote on December 15 2008, 12:08 am

i actually think that in the begining when hes doing the 15 14 12 i think after two or three times he goes 17 15 then 14 then back to the 15 14 12. if you listen close there a higher note thrown in there maybe every other time...or it least i think

I want to post or [tab]
guest
You may want to rate the tab now too:
select rating
Please do not post tabs as comments. Select "correction" instead!