Oops, an error
Loading. Please wait.

Jasey Rae Tab

version 1
version 1

Live

Whole song

Interactive

1,854 views 3 this week
no commentswrite comment
1 2 3 4 5
x 3
add to favorites
launch autoscroll
font size
0
reset
how to read this tab
guitar tuner
Autoscroll
slow
fast
+/-
esc
set tempo
stop
Help us to improve Ultimate-Guitar.com Take our survey!
×
Author
Difficulty
Tuning
intermediate
C# G# C# F# A# D#
All Time Low - Jasey Rae Live
Tabbed by : Khalamity
Drop C#
Based on their Straight to DVD Performance

Format :

Intro
Main Riff
Verse 1
Chorus
Break
Verse 2
Chorus
Bridge
Solo
Outro

~~~~~~~~Intro~~~~~~~~

Alex/Jack
D#|------------------------|
A#|------------------------|
F#|------------------------|
C#|------0~---0~---0~---0~-|
G#|------0~---0~---0~---0~-|
C#|-12/--0~---0~---0~---0~-|


~~~~~~~Main Riff~~~~~~~

Alex
D#|-----------------------------|
A#|-15--15-----15--15-----15----|
F#|---14---12----14---12-----14-|
C#|-----------------------------| x4
G#|-----------------------------|
C#|-----------------------------|

D#|-1212-------12--12----12----12--12----12--12----12---|
A#|------15------15--------15----15--------15--------15-|
F#|--------14--------14--------------14--------14-------|
C#|-----------------------------------------------------|
G#|-----------------------------------------------------|
C#|-----------------------------------------------------|


D#|-14--14----14--14----14----------------12--12----12---|
A#|---15--------15--------15--14h15p14------15--------15-|
F#|-------14--------14----------------14--------14-------|
C#|------------------------------------------------------|
G#|------------------------------------------------------|
C#|------------------------------------------------------|

D#|--------------------------------------------------------|
A#|-1415151515151515-1515151515151515-1515151515151515-15/-|
F#|-1414141414141414-1414141414141414-1414141414141414-14/-|
C#|--------------------------------------------------------|
G#|--------------------------------------------------------|
C#|--------------------------------------------------------|



Jack
D#|------------------------------|------------------------------------------------|
A#|------------------------------|------------------------------------------------|
F#|------------------------------|------------------------------------------------|
C#|-5~-----4---00000000-00000000-|-55555555-44444444-00000000-9999-7777-5~--5555--|
G#|-5~-----4---00000000-00000000-|-55555555-44444444-00000000-9999-7777-5~--5555--|
C#|-5~-----4---00000000-00000000-|-55555555-44444444-00000000-9999-7777-5~--5555--|
                                                                            xxxx


~~~~~~~Verse 1~~~~~~~


Alex
D#|----| |-------------------|
A#|----| |-------------------|
F#|----| |-------------------|
C#|-0~-| |-------------------|
G#|-0~-| |-99999999-77777777-|
C#|-0~-| |-99999999-77777777-| 
           xxxxxxxx xxxxxxxx
D#|----------------------------------------------------------------|
A#|----------------------------------------------------------------|
F#|----------------------------------------------------------------|
C#|-------------------------------------------------------5~-------|
G#|-555-5-55--777-7-77-------999-9-99-99999999--77777777--5~-------|
C#|-555-5-55--777-7-77--12/--999-9-99-99999999--77777777--5~-------|
    xxx x xx  xxx x xx       xxx x xx xxxxxxxx  xxxxx


Jack
D#|-----------------------|
A#|-10-10-----------------|
F#|---7--7~----------14~--|
C#|------------11-12------|
G#|-----------------------|
C#|-----------------------|

D#|-------------------------------------------------|
A#|-------------------------------------------------|
F#|-------------14-14-------------14-14-------------|
C#|-11-12-11-12-------11-12-11-12-------11-12-11-12-|
G#|-------------------------------------------------|
C#|-------------------------------------------------|
    x  x  x  x  x  x  x  x  x  x  x  x  x


D#|--------------------------------------------------------|
A#|--------------------------------------------------------|
F#|-11-11-11-7-7-7-7--\14-14-14-9-9-9-9--\11-11-11-7-7-7-7-|
C#|-x--x--x--x-x-x-x--\x--x--x--x-x-x-x--\x--x--x--x-x-x-x-|
G#|-9--9--9--5-5-5-5--\12-12-12-7-7-7-7--\9--9--9--5-5-5-5-|
C#|--------------------------------------------------------|

D#|---------------------|
A#|---------------------|
F#|-9-9-9-9-9-9-9-9--7~-|
C#|-x-x-x-x-x-x-x-x--x~-|
G#|-7-7-7-7-7-7-7-7--5~-|
C#|---------------------|


~~~~~~~Chorus~~~~~~~

Alex
D#|-----------------------------------------------------|
A#|--1010101010101010-1010101010101010-1010101010101010-|
F#|--7-7-7-7-7-7-7-7--9-9-9-9-9-9-9-9--7-7-7-7-7-7-7-7--|
C#|--7-7-7-7-7-7-7-7------------------------------------|
G#|-----------------------------------------------------|
C#|-----------------------------------------------------|

D#|-----------------------------------------------|
A#|-----------------------------------------------|
F#|-------14-------14-------14-------14-------14--|
C#|-11-12----11-12----11-12----11-12----11-12-----|
G#|-----------------------------------------------|
C#|-----------------------------------------------|

D#|-----------------------------------------------------|
A#|--1515151515151515-1010101010101010-1010101010101010-|
F#|--1414141414141414-9-9-9-9-9-9-9-9--7-7-7-7-7-7-7-7--|
C#|--1212121212121212-----------------------------------|
G#|-----------------------------------------------------|
C#|-----------------------------------------------------|

D#|-----------------------------|
A#|-----------------------------|
F#|-------14-------14-------14~-|
C#|-11-12----11-12----11-12-----|
G#|-----------------------------|
C#|-----------------------------|


Jack
D#|-------------------------------------|
A#|-------------------------------------|
F#|-22222222-99999999-77777777-77779999-|
C#|-00000000-77777777-55555555-55557777-| x2
G#|-00000000-77777777-55555555-55557777-|
C#|-00000000-77777777-55555555-55557777-|


~~~~~~~Break~~~~~~~

Alex
D#|-----------------------------|
A#|-15--15-----15--15-----15----|
F#|---14---12----14---12-----14-|
C#|-----------------------------| x2
G#|-----------------------------|
C#|-----------------------------|


Jack
D#|----|
A#|----|
F#|----|
C#|-0~-|
G#|-0~-|
C#|-0~-|


~~~~~~~Verse 2~~~~~~~

Alex
D#|-------------------------------------|
A#|-------------------------------------|
F#|-------------------------------------|
C#|-55555555-77777777-99999999-77777777-|
G#|-55555555-77777777-99999999-77777777-|
C#|-55555555-77777777-99999999-77777777-|

D#|-------------------------------------|
A#|-------------------------------------|
F#|-------------------------------------|
C#|-5-------------777-99999999-77777777-|
G#|-55555555-77777777-99999999-77777777-|
C#|-55555555-77777777-99999999-77777777-|
     xxxxxxx xxxxx
D#|------------|
A#|------------|
F#|------------|
C#|-5~-----7~--|
G#|-5~-----7~--|
C#|-5~-----7~--|


Jack
D#|------------------------------------------------------|
A#|--88888888-88888888-1010101010101010-1010101010101010-|
F#|--77777777-77777777-9-9-9-9-9-9-9-9--9-9-9-9-9-9-9-9--|
C#|------------------------------------------------------|
G#|------------------------------------------------------|
C#|------------------------------------------------------|

D#|--------------|
A#|--10~-----10~-|
F#|--7-~-----7-~-|
C#|--------------|
G#|--------------|
C#|--------------|

D#|------------------------------------------------------|
A#|--88888888-88888888-1010101010101010-1010101010101010-|
F#|--77777777-77777777-9-9-9-9-9-9-9-9--9-9-9-9-9-9-9-9--|
C#|------------------------------------------------------|
G#|------------------------------------------------------|
C#|------------------------------------------------------|
     xxxxxxx xxxxxxxx    x x x x x x x  x x x x x 
D#|--------------|
A#|--10~-----10~-|
F#|--7-~-----7-~-|
C#|--------------|
G#|--------------|
C#|--------------|

D#|-------------|
A#|--8~-----10~-|
F#|--7~-----7-~-|
C#|-------------|
G#|-------------|
C#|-------------|



~~~~~~~Bridge~~~~~~~~

Alex (Comes in after Jack plays his first riff once)
D#|-----------------------------|
A#|-----------------------------|
F#|-------------14-14-----------|
C#|-11-11-12-12-------12-12-----| x3
G#|-----------------------------|
C#|-----------------------------|
    x  x  x  x  x  x  x  x

D#|-----------------------------|
A#|-----------------------------|
F#|-------------14-14-14-14-----|
C#|-11-11-12-12-----------------|
G#|-----------------------------|
C#|-----------------------------|
    x  x  x  x  x  x  x  x

D#|-----------------------------|
A#|-----------------------------|
F#|-------------14-14-----------|
C#|-11-11-12-12-------12-12-----| x2
G#|-----------------------------|
C#|-----------------------------|

D#|-------------|
A#|-------------|
F#|-------14----|
C#|-11-12----12-| x5
G#|-------------|
C#|-------------|


Jack (I've never lit a match...)
D#|-------------------------------------------------|
A#|-------------------------------------------------|
F#|----77----77----77----77----77----77----77----77-|
C#|----77----77----77----77----77----77----77----77-|
G#|--5-----5-----4-----4-----7-----7-----7-----7----|
C#|-5-----5-----4-----4-----7-----7-----7-----7-----|

D#|--------------------------------------------------------------------|
A#|--------------------------------------------------------------------|
F#|--------------------------------------------------------------------|
C#|--------------------------------------------------------------------|
G#|-5-5-5-5-5-5-5-5--4-4-4-4-4-4-4-4--9-9-9-9-9-9-9-9--9-9-9-9-9-9-9-9-|
C#|-5-5-5-5-5-5-5-5--4-4-4-4-4-4-4-4--9-9-9-9-9-9-9-9--9-9-9-9-9-9-9-9-|
    x x x x x x x x  x x x x x x x x  x x x x x x x x  x x x x x x x x 

D#|-----------------------------------------------------------------------|
A#|-----------------------------------------------------------------------|
F#|-----------------------------------------------------------------------|
C#|------------------------------------------------------7777777777777777-|
G#|-5555555555555555--4444444444444444--7777777777777777-7777777777777777-|
C#|-5555555555555555--4444444444444444--7777777777777777-7777777777777777-|
    xxxxxxxxxxxxxxxx  xxxxxxxxxxxxxxxx  xxxxxxxxxxxxxxxx


~~~~~~~Solo~~~~~~~


Alex
D#|-----------------------------------------------|
A#|-----------------------------------------------|
F#|-------14-------14-------14-------14-------14--|
C#|-11-12----11-12----11-12----11-12----11-12-----|  x2
G#|-----------------------------------------------|
C#|-----------------------------------------------|

D#|-------------------|
A#|-------------------|
F#|-------14-14-14-14-|
C#|-11-12-------------|
G#|-------------------|
C#|-------------------|

D#|---------------------------------------------------------------|
A#|---------------------------------------------------------------|
F#|-14~--12-11-11h12~---12-11-12-14--12-14-16--14-16-18--16-18-19-|
C#|---------------------------------------------------------------|
G#|---------------------------------------------------------------|
C#|---------------------------------------------------------------|


D#|------------------------------------------------------------|
A#|------------------------------------------------------------|
F#|-18-19-21~---19--18--16--14--12-----------------------------|
C#|---------------------------------161616-16b-14~-1414-141414-|
G#|------------------------------------------------------------|
C#|------------------------------------------------------------|


Jack
D#|---------------------------------------------------------------------|
A#|---------------------------------------------------------------------|
F#|---------------------------------------------------------------------|
C#|-5555555555555555-4444444444444444-9999999999999999-9999999999999999-|
G#|-5555555555555555-4444444444444444-9999999999999999-9999999999999999-|
C#|-5555555555555555-4444444444444444-9999999999999999-9999999999999999-|

D#|--------------------------------------------------------------------|
A#|--------------------------------------------------------------------|
F#|--------------------------------------------------------------------|
C#|-5555555555555555--4444444444444444--7777777777777777-77-77-77-7777-|
G#|-5555555555555555--4444444444444444--7777777777777777-77-77-77-7777-|
C#|-5555555555555555--4444444444444444--7777777777777777-77-77-77-7777-|


~~~~~~~Outro~~~~~~~

Alex
D#|----------------------------------------------------------------------|
A#|--1515151515151515-1010101010101010-1010101010101010-1010101010101010-|
F#|--1414141414141414-9-9-9-9-9-9-9-9--7-7-7-7-7-7-7-7--9-9-9-9-9-9-9-9--|
C#|----------------------------------------------------------------------| x2
G#|----------------------------------------------------------------------|
C#|----------------------------------------------------------------------|


D#|----| |----------|
A#|-8~-| |----------|
F#|-7~-| |----------|
C#|-x~-| |-5555--0~-|
G#|-5~-| |-5555--0~-|
C#|----| |-5555--0~-|
            xx


Jack

D#|---------------------------------------------------------------------|
A#|---------------------------------------------------------------------|
F#|---------------------------------------------------------------------|
C#|-5555555555555555-44444444444444---0000000000000000-9999999977777777-| x2
G#|-5555555555555555-44444444444444---0000000000000000-9999999977777777-|
C#|-5555555555555555-44444444444444---0000000000000000-9999999977777777-|

D#|----| |----------|
A#|----| |----------|
F#|----| |----------|
C#|-5~-| |-5555--0~-|
G#|-5~-| |-5555--0~-|
C#|-5~-| |-5555--0~-|
            xx

----------------------------------------------------------------------------------
I believe that their guitars might be at a different tuning, but this sounds about right. 
I made sure which riff belonged to Alex/Jack by watching the live videos, so there 
is no mistaking that.
My favourite All Time Low Song, hope you'll have as much fun learning it as I did.
Suggest correction
Give kudos to tab author, rate the tab!
1 2 3 4 5
comments
print report bad tab
guest
You may want to rate the tab now too:
select rating
Wanna post a correction for this tab? Suggest correction