Oops, an error
Loading. Please wait.

Jasey Rae Tab

version 3
version 3

Whole song

Interactive

11,089 views 6 this week
no commentswrite comment
1 2 3 4 5
1 last vote to show rating
add to favorites
launch autoscroll
font size
0
reset
how to read this tab
guitar tuner
Autoscroll
slow
fast
+/-
esc
set tempo
stop
Help us to improve Ultimate-Guitar.com Take our survey!
×
Author
Jasey Rae - All Time Low
Put Up Or Shut Up

Tabbed by:ATLNP
Email:
Tuning:DADGBE
Intro:
e|-------------------------]-14-------]-12-10----]-10-12-14-17-]------------|
B|-15-------15-------15----]----15----]-------10-]-------------]------------|
G|----14-12----14-12----14-]-------14-]----------]-------------]------------|
D|-------------------------]----------]----------]-------------]------------|
A|-------------------------]----------]----------]-------------]------------|
D|-------------------------]----------]----------]-------------]------------|
x4           P.M.   x4         x3         x2

e|-10-10-10-10-10/12-]-----------oh-000-------------------------------------|
B|-------------------]-----------3h-333-------------------------------------|
G|-------------------]-----------2h-222-------------------------------------|
D|-------------------]-0-0-0-0-0-0h-000-------------------------------------|
A|-------------------]-0-0-0-0-0-0h-000-------------------------------------|
D|-------------------]-0-0-0-0-0-0h-000-------------------------------------|
       x2
Verse 1:P.M.
e|--------------------------------------------------------------------------|
B|--------------------------------------------------------------------------|
G|-1111111-9999999-7777777-77-77-77-99-99-99-1111111-9999999-7h-9h----------|
D|-9999999-7777777-5555555-55-55-55-77-77-77-9999999-7777777-5h-7h----------|
A|-9999999-7777777-5555555-55-55-55-77-77-77-9999999-7777777-5h-7h----------|
D|-9999999-7777777-5555555-55-55-55-77-77-77-9999999-7777777-5h-7h----------|
Chorus 1:
e|--------------------------------------------------------------------------|
B|--------------------------------------------------------------------------|
G|-------99999-77777--------------------------------------------------------|
D|-00000-77777-55555--------------------------------------------------------|
A|-00000-77777-55555--------------------------------------------------------|
D|-00000-77777-55555--------------------------------------------------------|
          x2
Intro 2:
e|------------------------]-0h----------------------------------------------|
B|-15-------15-------15---]-3h----------------------------------------------|
G|----14-12----14-12----14]-2h----------------------------------------------|
D|------------------------]-0h----------------------------------------------|
A|------------------------]-0h----------------------------------------------|
D|------------------------]-0h----------------------------------------------|
              x2
Verse 2:P.M.
e|--------------------------------------------------------------------------|
B|--------------------------------------------------------------------------|
G|-1111111-9999999-7777777-9999999-1111111-9999999-7h-9h--------------------|
D|-9999999-7777777-5555555-7777777-9999999-7777777-5h-7h--------------------|
A|-9999999-7777777-5555555-7777777-9999999-7777777-5h-7h--------------------|
E|-9999999-7777777-5555555-7777777-9999999-7777777-5h-7h--------------------|
Chorus 2:
e|--------------------------------------------------------------------------|
B|--------------------------------------------------------------------------|
G|-------99999-77777--------------------------------------------------------|
D|-00000-77777-55555--------------------------------------------------------|
A|-00000-77777-55555--------------------------------------------------------|
E|-00000-77777-55555--------------------------------------------------------|
          x2
Bridge:                    Outro:                    P.M.
e|----------------------]----------------------------------2-----------------|
B|----------------------]----------------------------------3-----------------|
G|-----11-11--9--9--7--7]-1111-9999]-9999-1111-9999-7------2-----------------|
D|----------------------]-9999-7777]-7777-9999-7777-5-0000-------------------|
A|---9--9--7--7--5--5---]-9999-7777]-7777-9999-7777-5-0000-------------------|
E|-9--9--7--7--5--5-----]-9999-7777]-7777-9999-7777-5-0000-------------------|
       x a lot

/= hammer on
P.M.= palm mute
============================================================================
Suggest correction
Give kudos to tab author, rate the tab!
1 2 3 4 5
comments
print report bad tab
guest
You may want to rate the tab now too:
select rating
Wanna post a correction for this tab? Suggest correction