Oops, an error
Loading. Please wait.

Jasey Rae Tab

version 4
version 4

Whole song

Interactive

2,943 views 6 this week
no commentswrite comment
1 2 3 4 5
please rate
add to favorites
launch autoscroll
font size
0
reset
how to read this tab
guitar tuner
Tab Pro tools
  • play this tab
  • loop segment
  • change instrument
  • show fretboard
  • metronome
×
Best way to learn
"Jasey Rae"
Autoscroll
slow
fast
+/-
esc
set tempo
stop
Contributor
artist:all time low
album:put up or shut up( EP )
song:jasey rae

tuning: drop d (DADGBe)
key: D
legend:
         ~ - sustain note
        ~~ - heavy sustain(dist)
         / - slide up
         \ - slide down
  // or \\ - slide to/from nowhere
         . - palm mute
        < >- tremolo picking
         p - pull off

 -----------
|   intro   |
 -----------

guitar 1:

e|------------------------------------------------------------------------------|
B|------------------------------------------------------------------------------|
G|------------------------------------------------------------------------------|
D|--5~~-4---000000000000--55555555--44444444--00000000--9999-7777-5~~--5-5-5-5--|
A|--5~~-4---000000000000--55555555--44444444--00000000--9999-7777-5~~--5-5-5-5--|
D|--5~~-4---000000000000--55555555--44444444--00000000--9999-7777-5~~--5-5-5-5--|
                                                                       . . . .

 guitar 2

e|------------------------------------------|
B|--15p0------------15p0-------------15-----|
G|-------14p0-12p0-------14p0-12p0------14--|
D|------------------------------------------| (4x)
A|------------------------------------------|
D|------------------------------------------|


e|--12p0------------12p0-------------12-----|
B|-------15p0------------15p0-----------15--|
G|------------14p0------------14p0----------|
D|------------------------------------------| (2x)
A|------------------------------------------|
D|------------------------------------------|


e|--14p0------------14p0-------------14-----|
B|-------15p0------------15p0-----------15--|
G|------------14p0------------14p0----------|
D|------------------------------------------|
A|------------------------------------------|
D|------------------------------------------|


e|--12p0------------12p0-------------12-----|
B|-------15p0------------15p0-----------15--|
G|------------14p0------------14p0----------|
D|------------------------------------------|
A|------------------------------------------|
E|------------------------------------------|


e|-------------------------------------------|
B|--151515151515151515-14/15151515151515-\\--|
G|--141414141414141414-12/14141414141414-\\--|
D|-------------------------------------------|
A|-------------------------------------------|
D|-------------------------------------------|


 -----------
|   verse   |
 -----------

guitar 1:

e|--------------------------------------------------------------------------------|
B|--------------------------------------------------------------------------------|
G|--------------------------------------------------------------------------------|
D|--0~~---99999999--77777777--555-55--777-77--999-9-99-99--777-7-77-77--55555555--|
A|--0~~---99999999--77777777--555-55--777-77--999-9-99-99--777-7-77-77--55555555--|
D|--0~~---99999999--77777777--555-55--777-77--999-9-99-99--777-7-77-77--55555555--|
                              ... ..  ... ..  ... . .. ..  ... . .. ..

guitar 2: (this comes in the palm mute part)

e|---------------------------------|
B|---------------------------------|
G|---------------------------------|
D|---------------------------------|
A|--9~-11~-9~-7~--9~-11~-9~-7~-5~--|
D|---------------------------------|


 ------------
|   chorus   |
 ------------

guitar 1:

e|------------------------------------|
B|------------------------------------|
G|------------------------------------|
D|--00000000--77777777--555555555555--| (2x)
A|--00000000--77777777--555555555555--|
D|--00000000--77777777--555555555555--|

guitar 2:

e|-------------------------------------------------|
B|-------------------------------------------------|
G|--------14-------14-------14-------14-------14---|
D|--11-12----11-12----11-12----11-12----11-12------| [2x (the whole prog)]
A|-------------------------------------------------|
D|-------------------------------------------------|

 -----------------
|   post chorus   |
 -----------------

guitar 2


e|------------------------------------------|
B|--15p0------------15p0-------------15-----|
G|-------14p0-12p0-------14p0-12p0------14--|
D|------------------------------------------|(2x)
A|------------------------------------------|
D|------------------------------------------|

 -------------
|   verse 2   |
 -------------

e|-------------------------------------------------------------------------------------------|
B|-------------------------------------------------------------------------------------------|
G|-------------------------------------------------------------------------------------------|
D|--55555555--77777777--99999999--77777777--55555555--77777777--99999999--77777777--5~--7~~--|
A|--55555555--77777777--99999999--77777777--55555555--77777777--99999999--77777777--5~--7~~--|
D|--55555555--77777777--99999999--77777777--55555555--77777777--99999999--77777777--5~--7~~--|
                                            ........  ........

guitar 2:

e|-----------------------------------------------------------------------------------|
B|-----------------------------------------------------------------------------------|
G|--------14----14----14----14----14----14---------14----14----14----14----14---14---|
D|--12-12----12----12----12----12----12------11-11----11----11----11----11----11-----|
A|-----------------------------------------------------------------------------------|
D|-----------------------------------------------------------------------------------|
     .  .     .     .     .     .     .       .  .     .     .     .     .



repeat chorus


 ----------------
|   bridge pt1   |
 ----------------

guitar 2

e|--5~~--5~~----3~~--3~~--|
B|--3~~--3~~----3~~--3~~--|
G|------------------------| (repeat many times)
D|------------------------|
A|------------------------|
D|------------------------|



 ----------------
|   bridge pt2   |
 ----------------

guitar 1

e|-----------------------------------------------------------------------|
B|-----------------------------------------------------------------------|
G|-----------------------------------------------------------------------|
D|--55555555--44444444--999999999999---55555555--44444444--777777777777--|
A|--55555555--44444444--999999999999---55555555--44444444--777777777777--|
D|--55555555--44444444--999999999999---55555555--44444444--777777777777--|
    ........  ........  ............   ........  ........  ............

guitar 2

e|--5~~--5~~----3~~--3~~--|
B|--3~~--3~~----3~~--3~~--|
G|------------------------| (repeat many times)
D|------------------------|
A|------------------------|
D|------------------------|

 ----------
|   solo   |
 ----------

guitar 1

e|--------------------------------------------------------------------------|
B|--------------------------------------------------------------------------|
G|--------------------------------------------------------------------------|
D|--55555555--44444444--999999999999---55555555--44444444--777-77-77-77-77--|
A|--55555555--44444444--999999999999---55555555--44444444--777-77-77-77-77--|
D|--55555555--44444444--999999999999---55555555--44444444--777-77-77-77-77--|


guitar 2

e|---------------------------------------------------------|
B|--------------------(many times then)--------------------|
G|--------14-------14--------------------<14>-<12>-<11>-9--|
D|--11-12----11-12-----------------------------------------|
A|---------------------------------------------------------|
D|---------------------------------------------------------|


e|---------------------------------------------------------|
B|--------------------(many times then)--------------------|
G|--------14-------14--------------------<14>-<16>-<18>-19-|
D|--11-12----11-12-----------------------------------------|
A|---------------------------------------------------------|
D|---------------------------------------------------------|

guitar 3 (probably the octave or the high part)

e|--------12-------12--------------------<12>-<14>-<15>-17-|
B|--10-12----10-12-----------------------------------------|
G|--------------------(many times then)--------------------|
D|---------------------------------------------------------|
A|---------------------------------------------------------|
D|---------------------------------------------------------|

 -----------
|   outro   |
 -----------

e|-------------------------------------------|
B|-------------------------------------------|
G|-------------------------------------------|
D|--55555555--44444444--00000000--9999-7777--| (2x)
A|--55555555--44444444--00000000--9999-7777--|
D|--55555555--44444444--00000000--9999-7777--|

e|----------------||
B|----------------||
G|----------------||
D|--55-44-0~~-~~--||
A|--55-44-0~~-~~--||
D|--55-44-0~~-~~--||
    .. ..

guitar 2

e|--------12-------12-------14-------14---|
B|--10-12----10-12----10-12----10-12------|
G|----------------------------------------| (many times)
D|----------------------------------------|
A|----------------------------------------|
D|----------------------------------------|

__________________________________________________________________________________________________

yeah it's all time low! haha i saw the other tabs and i think this tab is a
bit easier to understand and more complete than the others . trust me . just
listen to the song carefully
__________________________________________________________________________________________________

cheers!
LONG LIVE EARTH!XD
comments
We did not receive enough feedback on this tab! Please rate:
print report bad tab
1 2 3 4 5
I want to post or [tab]
guest
You may want to rate the tab now too:
select rating
Please do not post tabs as comments. Select "correction" instead!