Oops, an error
Loading. Please wait.

Just The Way Im Not Tab

3,718 views 3 this week
1 commentread comment
1 2 3 4 5
excellent!
x 3
add to favorites
launch autoscroll
font size
0
reset
how to read this tab
guitar tuner
Tab Pro tools
  • play this tab
  • loop segment
  • change instrument
  • show fretboard
  • metronome
×
Best way to learn
"Just The Way Im Not"
Autoscroll
slow
fast
+/-
esc
set tempo
stop
Contributor
Just The Way I'm Not

key-D
Chords used: D, G, A, Bm. all are played as power chords, except during the bridge

Intro: 
Guitar 1:
e----------------|----------------|----------------|----------------|
b----------------|----------------|----------------|----------------|
g-777777-7-------|-777777-7777----|-777777-7-------|-777777-7777----|
d----------------|----------------|----------------|----------------|
a-555555-5-------|-555555-5555----|-555555-5-------|-555555-5555----|
E----------------|----------------|----------------|----------------|
   
Guitar 2:
e----------------|----------------|----------------|----------------|
b----------------|----------------|----------------|----------------|
g----------------|----------------|----------------|----------------|
d-----------5-7--|-----------5-7--|-----------5-7--|-----------7-5--|
a-----------5-7--|-----------5-7--|-----------5-7--|-----------7-5--|
E-----------3-5--|-----------3-5--|-----------3-5--|-----------5-3--|
oh oh oh oh oh oh oh
      Hey!
(you like me just the way I'm not)
(oh oh oh oh), oh oh oh oh oh oh oh
Hey! 
          
Verse 1:
Guitar 1:
d------------|------------|------------|------------|
a-5-55555----|------------|------------|------------|
E------------|-7-77777----|-5-55555----|-3-33333----|
Can I pick you up for
another night on the north shore?
Do you even want to 
see my face again?

Guitar 1:
d------------|------------|------------|------------|
a-5-55555----|------------|------------|------------|
E------------|-7-77777----|-5-55555----|-3-33333----|

Guitar 2:
d------------|------------|------------|------------|
a-55445-4455-|-55445-4455-|-55445-4455-|-55445-4455-|
E------------|------------|------------|------------|
I'm a waste of chances
full of bad romances
Your favorite enemy and 
your most hated friend

Prechorus 1:
Guitar 1:
d------------------|------------------|------------------|-----------------|
a-55555-5555-------|-55555-5555-------|-55555-5555-------|-5555555---------|
E-33333-3333-------|-55555-5555-------|-33333-3333-------|-5555555---------|

Guitar 2:
e-99--99--99--99---|-88--88--88--88---|-99--99--99--99---|-88--88--88------|
b---99--99--99--99-|---99--99--99--99-|---99--99--99--99-|---99--99--9-----|
g------------------|------------------|------------------|-----------------|
When it hurts it hurts
you wonder if it's worth it
But when it works it works
and when its broke its perfect

Chorus:
Guitar 1:
e-----------------|-----------------|-----------------|----------------|
b-----------------|-----------------|-----------------|----------------|
g-7---------------|-----------------|-----------------|----------------|
d-7---------------|-9---------------|-7---------------|-5--------------|
a-5---------------|-9---------------|-7---------------|-5--------------|
E-----------------|-7---------------|-5---------------|-3---00--0235320|

Guitar 2:
e-7-7-7-7-7-7-7-7-|-7-7-7-7-7-7-7-7-|-5-5-5-5-5-5-5-5-|----------------|
b-7-7-7-7-7-7-7-7-|-7-7-7-7-7-7-7-7-|-7-7-7-7-7-7-7-7-|-7-7-7-7-7------|
g-----------------|-----------------|-----------------|----------------| 
Woah-oh, I never seem to please you
No-oh, don't you ever let me
go-oh, I know your heart is
shut, shut, shut
              
Guitar 1:
e-----------------|-----------------|-----------------|----------------|
b-----------------|-----------------|-----------------|----------------|
g-7---------------|-----------------|-----------------|----------------|
d-7---------------|-9---------------|-5---------------|-777777---------|
a-5---------------|-9---------------|-5---------------|-777777---------|
E-----------------|-7---------------|-3---------------|-555555---------|

Guitar 2:
e-7-7-7-7-7-7-7-7-|-7-7-7-7-7-7-7-7-|-5-5-5-5-5-5-5-5-|-5-5-5-5--------|
b-7-7-7-7-7-7-7-7-|-7-7-7-7-7-7-7-7-|-7-7-7-7-7-7-7-7-|-6-6-6-6--------|
g-----------------|-----------------|-----------------|----------------|
And don't you know-oh, nothing's gonna change us 
so-oh, all because I like you 
just the way you aren't
and you like me just the way I'm not

Intro 2:
Guitar 1:
e----------------|----------------|
b----------------|----------------|
g-7-777-77-------|-777777-7777----|
d----------------|----------------|
a-5-555-55-------|-555555-5555----|
E----------------|----------------|
   
Guitar 2:
e----------------|----------------|
b----------------|----------------|
g-7--------------|----------------|
d-7---------5-7--|-----------7-5--|
a-5---------5-7--|-----------7-5--|
E-----------3-5--|-----------5-3--|
oh oh oh oh oh oh oh
     Hey! 
(you like me just the way I'm not)
                 
Verse 2:
Guitar 1:
d------------|------------|------------|------------|
a-55555-5555-|-55555-5554-|------------|------------|
E------------|------------|-55555-5555-|-33333-3333-|
You're a classic case of
foolish young and in love
But you don't even know what
love could do to us

Guitar 1:
e-----------------|-----------------|---------------|-----------------|
b-----------------|-----------------|---------------|-----------------|
g-77777-7777------|-----------------|---------------|-----------------|
d-77777-7777------|-77777-7777------|-77777-7777----|-55555-5555------|
a-55555-5555------|-55555-5555------|-77777-7777----|-55555-5555------|
E-----------------|-77777-7777------|-55555-5555----|-33333-3333------|

Guitar 2:
e-----------------|-----------------|---------------|-----------------|
b-777777-5---8-7--|-7--7---5---9-7--|-77-7--5--8-7--|--7--7---5---9-7-|
g-7777777--7------|---7--7---7------|---7-7---7-----|-7--7--7---7-----|
d-777777----------|-----------------|---------------|-----------------|
a-----------------|-----------------|---------------|-----------------|
E-----------------|-----------------|---------------|-----------------|
We are brash and reckless
made of glass and careless
We break apart the moment 
we both feel too much

Prechorus 2:
Guitar 1:
d------------------|---------------|------------------|----------------|
a-55555-5555-------|-55555-5555----|-55555-5555-------|-5555555--------|
E-33333-3333-------|-55555-5555----|-33333-3333-------|-5555555--------|

Guitar 2:
(strum 16th notes for full measure on 1st 3 chords, and 1/2 measure on last)
e-10---------------|-10------------|-10---------------|-12-------------|
b-10---------------|-10------------|-10---------------|-10-------------|
g--7---------------|--7------------|--7---------------|--9-------------|
When it hurts it hurts
you wonder if it's worth it
But when it works it works
and when its broke its perfect

Chorus:
Guitar 1:
e-----------------|-----------------|-----------------|----------------|
b-----------------|-----------------|-----------------|----------------|
g-7---------------|-----------------|-----------------|----------------|
d-7---------------|-9---------------|-7---------------|-5--------------|
a-5---------------|-9---------------|-7---------------|-5--------------|
E-----------------|-7---------------|-5---------------|-3---00--0235320|

Guitar 2:
e-7-7-7-7-7-7-7-7-|-7-7-7-7-7-7-7-7-|-5-5-5-5-5-5-5-5-|----------------|
b-7-7-7-7-7-7-7-7-|-7-7-7-7-7-7-7-7-|-7-7-7-7-7-7-7-7-|-7-7-7-7-7------|
g-----------------|-----------------|-----------------|----------------|
Woah-oh, I never seem to please you
No-oh, don't you ever let me
go-oh, I know your heart is
shut, shut, shut
              
Guitar 1:
e-----------------|-----------------|-----------------|----------------|
b-----------------|-----------------|-----------------|----------------|
g-7---------------|-----------------|-----------------|----------------|
d-7---------------|-9---------------|-5---------------|-777777---------|
a-5---------------|-9---------------|-5---------------|-777777---------|
E-----------------|-7---------------|-3---------------|-555555---------|

Guitar 2:
e-7-7-7-7-7-7-7-7-|-7-7-7-7-7-7-7-7-|-5-5-5-5-5-5-5-5-|-5-5-5-5--------|
b-7-7-7-7-7-7-7-7-|-7-7-7-7-7-7-7-7-|-7-7-7-7-7-7-7-7-|-6-6-6-6--------|
g-----------------|-----------------|-----------------|----------------|
And don't you know-oh, nothing's gonna change us 
so-oh, all because I like you 
just the way you aren't
and you like me just the way I'm not

Intro 2:
Guitar 1:
e----------------|----------------|
b----------------|----------------|
g-7-777-77-------|-777777-7777----|
d----------------|----------------|
a-5-555-55-------|-555555-5555----|
E----------------|----------------|
   
Guitar 2:
e----------------|----------------|
b----------------|----------------|
g-7--------------|----------------|
d-7---------5-7--|-----------7-5--|
a-5---------5-7--|-----------7-5--|
E-----------3-5--|-----------5-3--|
oh oh oh oh oh oh oh
     Hey! 
(you like me just the way I'm not) 

Bridge:
Guitar 1:
e-----------------|-----------------|-----------------|-----------------|
b-7---------------|-5---------------|-7---------------|-3---------------|
g-7---------------|-6---------------|-7---------------|-4---------------|
d-7---------------|-7---------------|-9---------------|-5---------------|
a-----------------|-----------------|-----------------|-----------------|
E-----------------|-----------------|-----------------|-----------------|
Opposites distract
we fall between the cracks
forget about each other
'til we get each other back

Guitar 1:
e-----------------|-----------------|-----------------|-----------------|
b-7---------------|-5---------------|-7---------------|-3---------------|
g-7---------------|-6---------------|-7---------------|-4---------------|
d-7---------------|-7---------------|-9---------------|-5---------------|
a-----------------|-----------------|-----------------|-----------------|
E-----------------|-----------------|-----------------|-----------------|
Guitar 2:
e-----------------|-----------------|-----------------|-----------------|
b---7-7-7-7-7-7-7-|---5-5-5-5-5-5-5-|-----------------|-----------------|
g---7-7-7-7-7-7-7-|---6-6-6-6-6-6-6-|---7-7-7-7-7-7-7-|-7-7-7-7-7-7-7---|
d---7-7-7-7-7-7-7-|---7-7-7-7-7-7-7-|---7-7-7-7-7-7-7-|-7-7-7-7-7-7-7---|
a-----------------|-----------------|-----------------|-----------------|
E-----------------|-----------------|-----------------|-----------------|
Opposites distract
we fall between the cracks
forget about each other
'til we get each other back

Guitar 1:
e-----------------|-----------------|-----------------|-----------------|
b-7---------------|-5---------------|-7---------------|-3---------------|
g-7---------------|-6---------------|-7---------------|-4---------------|
d-7---------------|-7---------------|-9---------------|-5---------------|
a-----------------|-----------------|-----------------|-----------------|
E-----------------|-----------------|-----------------|-----------------|
Guitar 2:
e-----------------|-----------------|-----------------|-----------------|
b---7-7-7-7-7-7-7-|---5-5-5-5-5-5-5-|-----------------|-----------------|
g---7-7-7-7-7-7-7-|---6-6-6-6-6-6-6-|---7-7-7-7-7-7-7-|---7-7-7---------|
d---7-7-7-7-7-7-7-|---7-7-7-7-7-7-7-|---7-7-7-7-7-7-7-|---7-7-7---------|
a-----------------|-----------------|-----------------|-----------------|
E-----------------|-----------------|-----------------|-----------------|
And opposites distract
we fall between the cracks
forget about each other
'til we get each other back

Chorus: (no chord)
Woah-oh, I never seem to please you
No-oh, don't you ever let me
go-oh, I know your heart is
shut....

Guitar 1:
e-----------------|-----------------|-----------------|----------------|
b-----------------|-----------------|-----------------|----------------|
g-7---------------|-----------------|-----------------|----------------|
d-7---------------|-9---------------|-7---------------|-5--------------|
a-5---------------|-9---------------|-7---------------|-5--------------|
E-----------------|-7---------------|-5---------------|-3---00--0235320|

Guitar 2:
e-7-7-7-7-7-7-7-7-|-7-7-7-7-7-7-7-7-|-5-5-5-5-5-5-5-5-|----------------|
b-7-7-7-7-7-7-7-7-|-7-7-7-7-7-7-7-7-|-7-7-7-7-7-7-7-7-|-7-7-7-7-7------|
g-----------------|-----------------|-----------------|----------------|
Woah-oh, I never seem to please you
No-oh, don't you ever let me
go-oh, I know your heart is
shut, shut, shut
              
Guitar 1:
e-----------------|-----------------|-----------------|----------------|
b-----------------|-----------------|-----------------|----------------|
g-7---------------|-----------------|-----------------|----------------|
d-7---------------|-9---------------|-5---------------|-777777---------|
a-5---------------|-9---------------|-5---------------|-777777---------|
E-----------------|-7---------------|-3---------------|-555555---------|

Guitar 2:
e-7-7-7-7-7-7-7-7-|-7-7-7-7-7-7-7-7-|-5-5-5-5-5-5-5-5-|-5-5-5-5--------|
b-7-7-7-7-7-7-7-7-|-7-7-7-7-7-7-7-7-|-7-7-7-7-7-7-7-7-|-6-6-6-6--------|
g-----------------|-----------------|-----------------|----------------|
And don't you know-oh, nothing's gonna change us
                 (can i pick you up for) 
so-oh, all because I like you 
  (another night on the north shore)
just the way you aren't
and you like me just the way I'm not

Outro:
Guitar 1:
e----------------|----------------|
b----------------|----------------|
g-7-777-77-------|-777777-7777----|
d----------------|----------------|
a-5-555-55-------|-555555-5555----|
E----------------|----------------|
   
Guitar 2:
e----------------|----------------|
b----------------|----------------|
g-7--------------|----------------|
d-7---------5-7--|----------------|
a-5---------5-7--|----------------|
E-----------3-5--|----------------|
oh oh oh oh oh oh oh
Hey! oh oh oh oh oh oh oh
comments
We did not receive enough feedback on this tab! Please rate:
print report bad tab
1 2 3 4 5
1 comment total.
0 reply
Audible Warfare wrote on September 29 2013, 11:10 pm

The way you tabbed it sucks but what you tabbed is good.

I want to post or [tab]
guest
You may want to rate the tab now too:
select rating
Please do not post tabs as comments. Select "correction" instead!