Oops, an error
Loading. Please wait.

Keep The Change You Filthy Animal Tab

version 1
version 1

Whole song

Interactive

13,278 views 3 this week
no commentswrite comment
1 2 3 4 5
please rate
add to favorites
launch autoscroll
font size
0
reset
how to read this tab
guitar tuner
Tab Pro tools
  • play this tab
  • loop segment
  • change instrument
  • show fretboard
  • metronome
×
Best way to learn
"Keep The Change You Filthy Animal"
Autoscroll
slow
fast
+/-
esc
set tempo
stop
Contributor
Difficulty
Tuning
novice
D A D G B E
----------------------------------------------------------------------------             
KEEP THE CHANGE, YOU FILTHY ANIMAL- All Time Low
----------------------------------------------------------------------------
Tabbed by: Malichi Merksi
Email: Reptar.dude@yahoo.com or myspace.com/malichieddi

Tuning:Drop D
I found this song super hard to tab. I'm not very expeirenced at it and
that's probably why, but this sounds close enough to me so enjoy...2nd tab. Woot woot


***Note-Instead of the 0 on the e string, you can use 5 on
the B string. They sound exactly alike and it doesn't make a 
difference how you do it. 
0:00-0:05
e|----0-0-7-0-4-0-2/4-0-0-5-4---0-7-0-4-0-2/4-0-5-4-2-0---------|
B|--------------------------------------------------------------|
G|--------------------------------------------------------------|
D|-6\-----------------------------------------------------------|
A|-6\-----------------------------------------------------------|
D|-6\-----------------------------------------------------------|

0:06-0:11
e|----0-0-7-0-4-0-2/4-0-0-5-4---0-7-4~--------------------------|
B|--------------------------------------------------------------|
G|--------------------------------------------------------------|
D|--------------------------------------------------------------|
A|--------------------------------------------------------------|
D|--------------------------------------------------------------|

0:12-0:20
e|--------------------------------------------------------------|
B|--------------------------------------------------------------|
G|---------------------[X8]-----[X8]----------------------------|
D|--[X15]------------44444444-22222222------[X15]---------------|
A|-2-222222222222222-22222222-00000000-222222222222222-3*-------|
D|-2-222222222222222-------------------222222222222222----------|
     ............... ........ ........ ...............

0:21-0:28
e|--------------------------------------------------------------|
B|--------------------------------------------------------------|
G|---------------------[Listen for strumming rhythm]------------|
D|-44444444p22222222-------------44444444-22222222--------------|
A|-22222222p00000000----22222222-22222222-00000000--------------|
D|----------------------22222222--------------------------------|

0:29-0:34
e|--------------------------------------------------------------|
B|--------------------------------------------------------------|
G|--------------------------------------------------------------|
D|--------------------------------------------------------------|
A|-2-2---2-2---22-222222222222----------------------------------|
D|-0-0---0-0---00-000000000000----------------------------------|
                  ............  

0:35-0:57
e|--------------------------------------------------------------|
B|--------------------------------------------------------------|
G|----[Listen for strumming rhythm]-----------------------------|
D|--------------44444444-22222222-------------------------------|
A|-----22222222-22222222-00000000-------------------------------|
D|-----22222222-------------------------------------------------|

0:58-1:03
e|----0-0-7-0-4-0-2/4-0-0-5-4---0-7-0-4-0-2/4-0-5-4-2-0---------|
B|--------------------------------------------------------------|
G|--------------------------------------------------------------|
D|--------------------------------------------------------------|
A|--------------------------------------------------------------|
D|--------------------------------------------------------------|

1:04-1:09
e|----0-0-7-0-4-0-2/4-0-0-5-4---0-7-4~--------------------------|
B|--------------------------------------------------------------|
G|--------------------------------------------------------------|
D|--------------------------------------------------------------|
A|--------------------------------------------------------------|
D|--------------------------------------------------------------|

This is extremely hard to hear so I did the best I could to interpret
it. Please correct me if you know the right tab. 
1:10-1:17
e|-------------------------------------------------------------|
B|-------------------------------------------------------------|
G|--4-4-4-4-2-2-2-2-0-0-0-0-2-2-2-2-4-4-4-4-2-2-2-2------------|
D|-2-2-2-2-2-2-2-2-2-2-2-2-2-2-2-2-2-2-2-2-2-2-2-2-------------|
A|-------------------------------------------------------------|
D|-------------------------------------------------------------|
   ................................................

1:18-1:26
e|--------------------------------------------------------------|
B|--------------------------------------------------------------|
G|---------------------[Listen for strumming rhythm]------------|
D|-44444444p22222222-------------44444444-22222222--------------|
A|-22222222p00000000----22222222-22222222-00000000--------------|
D|----------------------22222222--------------------------------|

1:27-1:32
e|--------------------------------------------------------------|
B|--------------------------------------------------------------|
G|--------------------------------------------------------------|
D|--------------------------------------------------------------|
A|-2-2---2-2---22-222222222222----------------------------------|
D|-0-0---0-0---00-000000000000----------------------------------|
                  ............  
1:33-1:56
e|--------------------------------------------------------------|
B|--------------------------------------------------------------|
G|----[Listen for strumming rhythm]-----------------------------|
D|--------------44444444-22222222-------------------------------|
A|-----22222222-22222222-00000000-------------------------------|
D|-----22222222-------------------------------------------------|

1:57-2:22
e|--------------------------------------------------------------|
B|--------------------------------------------------------------|
G|--2-2-2-2-2-2-2-2-2-2-2-2-2-2-2-2-----------------------------|
D|-2-2-2-2-2-2-2-2-2-2-2-2-2-2-2-2------------------------------|
A|--------------------------------------------------------------|
E|--------------------------------------------------------------|

Guitar unaudible [2:23-2:45]

2:46-3:07
e|--------------------------------------------------------------|
B|--------------------------------------------------------------|
G|----[Listen for strumming rhythm]-----------------------------|
D|--------------44444444-22222222-------------------------------|
A|-----22222222-22222222-00000000-------------------------------|
D|-----22222222-------------------------------------------------|

3:08-3:13
e|----0-0-7-0-4-0-2/4-0-0-5-4---0-7-0-4-0-2/4-0-5-4-2-0---------|
B|--------------------------------------------------------------|
G|--------------------------------------------------------------|
D|--------------------------------------------------------------|
A|--------------------------------------------------------------|
D|--------------------------------------------------------------|

3:14-3:19
e|----0-0-7-0-4-0-2/4-0-0-5-4---0-7-4~--------------------------|
B|--------------------------------------------------------------|
G|--------------------------------------------------------------|
D|--------------------------------------------------------------|
A|--------------------------------------------------------------|
D|--------------------------------------------------------------|

.:Tab Legend:.
| /  slide up
| \  slide down
| h  hammer-on
| p  pull-off
| ~  Let ring
| *  Pinch harmonic
| .  Palm mute
comments
We did not receive enough feedback on this tab! Please rate:
print report bad tab
1 2 3 4 5
I want to post or [tab]
guest
You may want to rate the tab now too:
select rating
Please do not post tabs as comments. Select "correction" instead!