Oops, an error
Loading. Please wait.

Keep The Change You Filthy Animal Tab

version 2
version 2

Whole song

Interactive

14,987 views 3 this week
no commentswrite comment
1 2 3 4 5
accurate
x 4
add to favorites
launch autoscroll
font size
0
reset
how to read this tab
guitar tuner
Autoscroll
slow
fast
+/-
esc
set tempo
stop
Help us to improve Ultimate-Guitar.com Take our survey!
×
Author
Difficulty
novice
		   =================
		   =Keep the change=
		   =================

tabbed by: cm

======================= Guitar 1 =========================


 Verse

e|--------------------------------------------------------|
b|--------------------------------------------------------|
g|---------------x-4-x-4-4-6~---x-2-x-2-2--x-6-x-6-6-4~---|
d|--x-2-x-2-2~---x-4-x-4-4-6~---x-2-x-2-2--x-6-x-6-6-4~---|
a|--x-2-x-2-2~---x-2-x-2-2-4~---x-0-x-0-0--x-4-x-4-4-2~---|
E|--x-0-x-0-0~--------------------------------------------|

e|--------------------------------------------------------|
b|--------------------------------------------------------|
g|---------------x-4-x-4-4-6~-----------------------------|
d|--x-2-x-2-2~---x-4-x-4-4-6~---7~--6~--4~----------------|
a|--x-2-x-2-2~---x-2-x-2-2-4~---7~--6~--4~----------------|
E|--0-0-x-0-0~------------------5~--4~--2~----------------|

e|--------------------------------------------------------|
b|--------------------------------------------------------|
g|-----------------------66666----------------------------|
d|--2~----4--6--2-----4--66666-6~-77777777----------------|
a|--2~-2--2--4--0--2--2--44444-6~-77777777----------------|
E|--0~-0-----------0-----------4~-55555555----------------|
      pm................

e|--------------------------------------------------------|
b|--------------------------------------------------------|
g|-----4--6-----------------------------------------------|
d|--2--4--6--6--7----4-4x---4x-4x---4-6~--777777777777----|
a|--2--2--4--6--7----4-4x---4x-4x---4-6~--777777777777----|
E|--0--------4--5----2-2x---2x-2x---2-4~--555555555555----|
					 pm..........


 Chorus

e|--------------------------------------------------------|
b|--------------------------------------------------------|
g|-----4--22x--222x--222x--22222--------------------------| x2
d|--2--4--22x--222x--222x--22222--------------------------|
a|--2--2--00x--000x--000x--00000--------------------------|
E|--0-----------------------------------------------------|

e|--------------------------------------------------------|
b|--------------------------------------------------------|
g|-----4--6-------------2--4------------------------------|
d|--2--4--6--6--7----4--2--4--2~~-------------------------|
a|--2--2--4--6--7----4--0--2--2~~-------------------------|
E|--0--------4--5----2--------0~~-------------------------|

 Break

e|--------------------------------------------------------|
b|--------------------------------------------------------|
g|--------------------------------------------------------| x2
d|--------------------------------------------------------|
a|----------0000+-----------------------------------------|
E|---0000+---------4444+--4444+---------------------------|


======================= Guitar 2 =========================


 1th Verse

e|--0-0-7-0-4-0-2-4-0-4-0-4-5-4---0-0-7-0-4-0-2-4-0-4-0-4-5-4-2-0--|
b|-----------------------------------------------------------------|
g|-----------------------------------------------------------------|
d|-----------------------------------------------------------------|
a|-----------------------------------------------------------------|
E|-----------------------------------------------------------------|

e|--0-0-7-0-4-0-2-4-0-4-0-4-5-4---0~--7~--2~--------------|
b|--------------------------------------------------------|
g|--------------------------------------------------------|
d|--------------------------------------------------------|
a|--------------------------------------------------------|
E|--------------------------------------------------------|

e|-----------------------------------------------------------|
b|-----------------------7*----------------------------------|
g|-------------------------666-------------------------------|
d|--2~----4--6--2-----4----666-6~-77777777-------------------|
a|--2~-2--2--4--0--2--2----444-6~-77777777-------------------|
E|--0~-0-----------0-----------4~-55555555-------------------|
      pm...............
 |---not played--|

e|--------------------------------------------------------|
b|--------------------------------------------------------|
g|-----4--6-----------------------------------------------|
d|--2--4--6--6--7----4-4x---4x-4x---4-6~--777777777777----|
a|--2--2--4--6--7----4-4x---4x-4x---4-6~--777777777777----|
E|--0--------4--5----2-2x---2x-2x---2-4~--555555555555----|
					 pm..........


 Chrous
   same as Guitar 1

 2th Verse

e|--0-0-7-0-4-0-2-4-0-4-0-4-5-4---0-0-7-0-4-0-2-4-0-4-0-4-5-4-2-0--|
b|-----------------------------------------------------------------|
g|-----------------------------------------------------------------|
d|-----------------------------------------------------------------|
a|-----------------------------------------------------------------|
E|-----------------------------------------------------------------|

e|--0-0-7-0-4-0-2-4-0-4-0-4-5-4---0~--7~--2~--------------|
b|--------------------------------------------------------|
g|--------------------------------------------------------|
d|--------------------------------------------------------|
a|--------------------------------------------------------|
E|--------------------------------------------------------|

e|--5-5-575--4-4-454--5-5-575--0-0-020--------------------|
b|--------------------------------------------------------|
g|--------------------------------------------------------|
d|--------------------------------------------------------|
a|--------------------------------------------------------|
E|--------------------------------------------------------|
  pm...................................

e|--5-5-575--4-4-454--------------------------------------|
b|--------------------------------------------------------|
g|--------------------66666-------------------------------|
d|--------------------66666-6-777777777777----------------|
a|--------------------44444-6-777777777777----------------|
E|--------------------------4-555555555555----------------|
  pm..................

e|--5-5-575--4-4-454--5-5-575--0-0-020-0-0~~--------------|
b|--------------------------------------------------------|
g|--------------------------------------------------------|
d|--------------------------------------------------------|
a|--------------------------------------------------------|
E|--------------------------------------------------------|

 Break

e|--12~~~~~11~~~~~12~~~~~11~~~~~12~~~~~11~~~~~------------|
b|--------------------------------------------------------|
g|--------------------------------------------------------| and so on
d|--------------------------------------------------------|
a|--------------------------------------------------------|
E|--------------------------------------------------------|

e|--------------------------------------------------------|
b|--x-9-9-x-9-x-x-9-9-x-9-x-9-7-7-7-----------------------|
g|--x-9-9-x-9-x-x-9-9-x-9-x-9-8-8-8-----------------------| x7
d|--x-9-9-x-9-x-x-9-9-x-9-x-9-9-9-9-----------------------|
a|--------------------------------------------------------|
E|--------------------------------------------------------|

e|--------------------------------------------------------|
b|--9-9-9-9-9-9-9-9-9-9-----------------------------------|
g|--9-9-9-9-9-9-9-9-9-9-----------------------------------|
d|--9-9-9-9-9-9-9-9-9-9-----------------------------------|
a|--------------------------------------------------------|
E|--------------------------------------------------------|


======================== Order ===========================


|
|Verse
|Chorus
|
|Verse
|Chorus
|
|Break
|Chorus
|Verse
|


Thx for feedback, cm!
Suggest correction
What's this?
You can suggest a correction to this tab. Community and Mods will review your correction and vote to approve or reject it.
comments
print report bad tab
guest
You may want to rate the tab now too:
select rating
Please do not post tabs as comments. Select "correction" instead!